Give Kudos?
Are you sure you want to give kudos to Adam223?

Add To Songbook?
Are you sure you want to add this song to your songbook?


2,411 bands | 32,018 songs
Search: Register FREE! | Login
Browse Songs:
Browse Bands:
Tool Panel
Discuss This Song

1 2 3 4 5





Blake Shelton - God Gave Me You (Intro)
Album: Red River Blue (2011)
Submitter: Adam223 (0) on 8/26/11
Month Views: 2 | Total Views: 8,717
Moderator: jhempel24 | Report This Song?
Song Tools

Comment

Songbook

Kudos

Show Chords

Print

Here is what I came up with for the intro to this song.
It's kinda hard to make it 100% perfect because there
are multiple instruments all going at the same time, 
but if you play this I don't think anyone will argue 
with you much haha.  

Here is a YouTube video of me playing this.  I tried
doing it at a slower speed too for beginners to learn.

http://www.youtube.com/watch?v=2WPFaKpI49Y


e:-----5------5------5------5------5-
B:---8------8------7------7------7---
G:-7------7------7------7------7-----
D:-----------------------------------
A:-----------------------------------
E:-----------------------------------

e:-----2------2------5------5------5-
B:---3------3------5------5------5---
G:-4------4------6------6------6-----
D:-----------------------------------
A:-----------------------------------
E:-----------------------------------

e:-----5------5------5------5------5-
B:---8------8------7------7------7---
G:-7------7------7------7------7-----
D:-----------------------------------
A:-----------------------------------
E:-----------------------------------

e:-----2------2------5---------------
B:---3------3------5------5-7-5------
G:-4------4------6------7-------7-6-7
D:-----------------------------------
A:-----------------------------------
E:-----------------------------------
 Comments (click here to add a non-facebook comment)
Home | FAQs | Privacy | Terms | Advertise | Contact
Top 100 Tab Sites