Give Kudos?
Are you sure you want to give kudos to jshoreatp?

Add To Songbook?
Are you sure you want to add this song to your songbook?


2,630 bands | 34,429 songs
Search: Register FREE! | Login
Browse Songs:
Browse Bands:
Tool Panel
Discuss This Song

1 2 3 4 5





Blake Shelton - Home (Solo)
Album: Pure BS (2007)
Submitter: jshoreatp (1) on 8/3/09
Month Views: 45 | Total Views: 4,464
Moderator: jhempel24 | Report This Song?
Song Tools

Comment

Songbook

Kudos

Show Chords

Print

SOLO

E|----------------------14------------------------------------------------------------|
B|------12/15-----15/17------15-12-15/1710/12-----------------------------------------|
G|11-12------------------------------------------14-12-11----12-14-11----10/12-10/12--|
D|--------------------------------------------------------------------12-12/14-12/14--|
A|------------------------------------------------------------------------------------|
E|------------------------------------------------------------------------------------|

E--------------------15-14----------------------------------15-----
B--------15----------------15---17-13/15----------15-----15---h17--
G-----------16-14------------16----14/16----14h16----16-------h16--
D--14-16----------17-----------------------------------------------
A------------------------------------------------------------------
E------------------------------------------------------------------

 Comments (click here to add a non-facebook comment)
Home | FAQs | Privacy | Terms | Advertise | Contact
Top 100 Tab Sites