Give Kudos?
Are you sure you want to give kudos to MattCruiz?

Add To Songbook?
Are you sure you want to add this song to your songbook?


2,720 bands | 35,142 songs
Search: Register FREE! | Login
Browse Songs:
Browse Bands:
Tool Panel
Discuss This Song

1 2 3 4 5



Blue County - Good Little Girls (Intro)
Album: Blue County (2004)
Submitter: MattCruiz (1) on 9/18/05
Month Views: 9 | Total Views: 2,517
Moderator: falgorn | Report This Song?
Song Tools

Comment

Songbook

Kudos

Show Chords

Print

---------------------------------------
---------------------------------------
-5--------------------5----------------
---7-------7-7-7-5------7-----7-7------
------7h9----------7------7h9----------
---------------------------------------


---------------------------------------
-8-8p7-5-------------------------------
---------7-7-7p5-----7-----------------
-----------------7-5---5-7-------------
---------------------------------------
---------------------------------------
 Comments (click here to add a non-facebook comment)
Home | FAQs | Privacy | Terms | Advertise | Contact
Top 100 Tab Sites