Give Kudos?
Are you sure you want to give kudos to rock_n_roll?

Add To Songbook?
Are you sure you want to add this song to your songbook?


2,693 bands | 34,920 songs
Search: Register FREE! | Login
Browse Songs:
Browse Bands:
Tool Panel
Discuss This Song

1 2 3 4 5





Boy Howdy - She'd Give Anything Into 100% Correct (Intro)
Album: She'd Give Anything (EP) (1994)
Submitter: rock_n_roll (1) on 1/12/09
Month Views: 8 | Total Views: 2,361
Sound Byte: Listen
Moderator: redneck4ever | Report This Song?
Song Tools

Comment

Songbook

Kudos

Show Chords

Print

-------------------------------------------------------------------------------
 	  	  	      SONG NAME - Band Name
-------------------------------------------------------------------------------
Tabbed by: rock_n_roll
Well i can guarantee this is 100% correct being it was taught to me by the person who wrote it.

Tuning:
                                               x2
e|------------------------------------0--------------------------------------|
B|-------------1-----------------1----1--------------------------------------|
G|----------0-----0-----0-----0-------0--------------------------------------|
D|-------2----------2-----2h3---------3--------------------------------------|
A|----3---------------3------------------------------------------------------|
E|---------------------------------------------------------------------------|

 
 Comments (click here to add a non-facebook comment)
Home | FAQs | Privacy | Terms | Advertise | Contact
Top 100 Tab Sites