Give Kudos?
Are you sure you want to give kudos to Seh17?

Add To Songbook?
Are you sure you want to add this song to your songbook?


2,726 bands | 35,161 songs
Search: Register FREE! | Login
Browse Songs:
Browse Bands:
Tool Panel
Discuss This Song

1 2 3 4 5



Brad Paisley - Celebrity2 (Lead)
Album: Mud on the Tires (2003)
Submitter: Seh17 (0) on 6/8/03 1 comment
Month Views: 14 | Total Views: 4,904
Moderator: Ray Terry | Report This Song?
Song Tools

Comment

Songbook

Kudos

Show Chords

Print

e-----------------------------------------------------------------------------------
b-----------------------------------------------------------------------------------
g-----------------------------------------------------------------------------------
d-----------------------------------------------------------------------------------
a-------------------3---5b 5-----------------------------------------------------
e-3 3 3 3  3h5 -----------------------------------------------------------------

Verse two lick 1 is up there, these are all from verse two I learned them by ear, 
I don't know the third lick though

e---------------------------------------------------------------------------------
b---------------------------------------------------------------------------------
g---------------------------------------------------------------------------------
d---------------------------------------------------------------------------------
a--------------2h3  5h6 7----------------------------------------------------
e--2 3 5------------------------------------------------------------------------

Lick two

e--------------------------------------------------------------------------------
b-----------1p0---------------------------------------------------------------
g------------------3p2 0 ------------3p2 0---------------------------------
d-0 1h2--------------------3p2 0-----------3p2 0------------------------
a---------------------------------------------------------5p3 -------3--------
e---------------------------------------------------------------3h5------------

Lick four 
 Comments (click here to add a non-facebook comment)
Lick 3 is a triadic-type lick up around the 12th fret as follows. barre your first finger across the 12th fret on the G,B,and E strings, then place your middle finger on the 13th fret on the B string. then place your third finger on the 14th fret on the D string. Lastly, place your pinky finger on the 15th fret on the high E string. With this shape you should have the entire lick under your fingers. also, on the last part at the 14th fret, pick even 16th notes and just slide your finger down the neck, if you listen to the CD you'll hear what I'm talking about.
e-15--15---12--------------------------------
b--------------13----------------------------
g-----------------12-------------------------
d--------------------14----------------------
a--------------------------------------------
e--------------------------------------------

Next, about the last lick, this is the way that I play it, and it may be easier for you, plus i watched Brad play it live.

First of all, let me say that the first two notes of this lick are pick up notes. this lick is played in straight sixteenth notes. so you are actually starting on on the "and" of 4.
&-a-1-e-&-a-2-e-&-a-3-e-&-a-4-e-&-a-1
e--------------------------------------------
b--------------------------------------------
g--------5---4--------------------------5----
d--------------5-4-----3-5-0-1-2--------5----
a--5-6-7---7-------5-4-----------3-2-3--3----
e--------------------------------------------

There ya go. Hope it helped. by the way, Try checkin out crookcustomguitars.com you've gotta buy one of Bill Crooks guitars! If you ever get the chance to order one of his paisley models with a G-bender go for it! They play like a dream!
-sccfan | 10/18/2004
Home | FAQs | Privacy | Terms | Advertise | Contact
Top 100 Tab Sites