Give Kudos?
Are you sure you want to give kudos to jpatt57?

Add To Songbook?
Are you sure you want to add this song to your songbook?


2,679 bands | 34,861 songs
Search: Register FREE! | Login
Browse Songs:
Browse Bands:
Tool Panel
Discuss This Song

1 2 3 4 5





Brad Paisley - Go To Bed Early (Intro)
Album: Love and War (2017)
Submitter: jpatt57 (0) on 3/19/18
Month Views: 12 | Total Views: 597
Moderator: Ray Terry | Report This Song?
Song Tools

Comment

Songbook

Kudos

Show Chords

Print

Brad Paisley

Go To Bed Early Intro

E--------------------------------------------------------------------------------------------------------------
B---------------------------------------------10--------5----5-------------------------------------------------
G-------------------------4b6--6rb4-----------9---------4----4-------------------------------------------------
D----------------6--4-----4----4---------9h11-------4h6------6-------------------------------------------------
A------2--4--6---7--6------------------------------------------------------------------------------------------
E---2----------------------------------------------------------------------------------------------------------

E---------------------------------------------------------------------------------------------------------------
B---5--4--6--4----------------10---------5\---------------------------------------------------------------------
G---4--4--4--4----------------9----------4\----------4--6b--6--4------------------------------------------------
D---4--4-----------------9h11--------4h6---------4h6-----------4------------------------------------------------
A---------------------------------------------------------------------------------------------------------------
E---------------------------------------------------------------------------------------------------------------
 Comments (click here to add a non-facebook comment)
Home | FAQs | Privacy | Terms | Advertise | Contact
Top 100 Tab Sites