Give Kudos?
Are you sure you want to give kudos to calve66?

Add To Songbook?
Are you sure you want to add this song to your songbook?


3,284 bands | 38,017 songs
Search: Register FREE! | Login
Browse Songs:
Browse Bands:
Tool Panel
Discuss This Song

1 2 3 4 5



Brad Paisley - Jingle Bells (Tab)
Album: A Brad Paisley Christmas (2006)
Submitter: calve66 (17) on 1/22/08 2 comments
Month Views: 3,591 | Total Views: 18,590
Moderator: Ray Terry | Report This Song?
Song Tools

Comment

Songbook

Kudos

Show Chords

Print

Brad Paisley:Jingle Bells

Transcribed by Cal Van Etten 1/22/08

Sorry I missed the season on this one guys.
I been busy

Note: There are certain licks in here where
Brad is definitely using the G-Bender. I do
not have one so I worked around the best
I could. Hope you enjoy it ! ~ Cal 

Intro

E-----0-0-0---0-0-0----3-------------------
B--------------------5-----3---------------
G--------------------5---5---3b(5)r3b(5)r3-
D------------------------3---2-------------
A----------------------------3-------------
E-3/8-----7-6-----5--4---3-----------------

Notes on the above section: Rake the chords with your 
fingers or pick. The bend at the end is done with a 
G-Bender but it can be done without.

E-------3--------------------
B-0h1-----------0------------
G-----0-------0-----0------0- Play 4x
D---------0h2---0h2----0h2---
A----------------------------
E----------------------------


Main Melody

E---------------0-3-------------------------------------5-
B-5---5-5-5-5-5-------3-5-3-------------6-6---6-5---------
G-4h5-5-4-3-3-2-3---5---5-3b(5)r3-----------------7b(9)---
D---------------2-----------------5h6h7-7-6-6-------------
A---------------------------------------------------------
E---------------------------------------------------------


E---------------------3---------------0-3-----------------
B-------------------5-3-5---5-5-5-5-5-------3-------------
G-7b(9)-(9)r7-5b(7)---4-4h5-5-4-3-3-2-3---5---------7b(9)-
D---------------------3---------------2----------10-------
A---------------------------------------------10----------
E---------------------------------------------------------


E-----------------------------------------------------
B---------10------------6-------------------8-5-------
G-12b(14)----10b(12)r10---(9)r7b(9)-10b(12)-----5b(7)-
D-15----------8---------------------------------------
A-15--------------------------------------------------
E------------------------------------------------------


E---------------------------------------------------------
B---------------------------------------------------------
G-5b(7)r-slowly-------------------------------------------
D------------------------2-0h2p0-----------------------14-
A--------------------------------3----------9-10-11-12----
E----------------0-1-2-3-----------3b(4)r3/---------------


E---------------------------------------------------------
B------------------------------------------------------8-8
G--------------------------------------------------------7
D-12h14p12-10------------------------------------7h8h9----
A-------------12b(13)r12\1-----8-7h8p7-5------------------
E--------------------------3/5-----------5b(7)-2----------


E-----------------12-10-8---------12-10h12p10-8h10p8-----
B-6-----------7h8---------8\-3/12--------------------10--
G---7b(9)-8h9----------------3/12------------------------
D--------------------------------------------------------
A---8b(10)-----------------------------------------------
E--------------------------------------------------------


E-------------------3-3-1-------------------0-3---------------
B-----6-6-6-6-5-5-6-3-3-------5---5-5-5-5-5-------3-5---------
G-----------------4-------4-5-4h5-5-4-3-3-2-3---5-----3b(5)r3-
D-2/7-7-6-6-5-5-5---------------------------2---3-------------
A-3/8---------------------2-3-------------------------3b(5)r3-
E-----------------------------------------------3-------------


E-------------------------------------------------------------
B------------------------------------------11----5---5-5-5-5-5
G------------------------------------------10----4h5-5-4-3-3-2
D-------------------------------------------9--5--------------
A---------------------5h6h7-5h6h7-5-7-5/10-10\----------------
E-3-1-1-1-1-1-0-0-1/5-----------------------------------------


E------------------------------------13-13-13----13-12-12-
B-5-8-------------8b(10)r8--------13----------10----------
G-----5-7-5-7b(9)--------------14-------------------12----
D---------------------------15----------------------------
A---------------------------------------------------------
E---------------------------------------------------------


E-15-15-13-10-----------------------------------------------
B-------------12b(13)---------------------------------------
G-------14--------------------------------------------------
D-----------------------------2-0h2p0-----------------------
A-------------------------------------3---------------0h2-3-
E---------------------0h1-2h3-----------2b(3)-0h1-2h3-------


E---------------1p0---0-------------0-3-0------------------
B-----------1/3-----3---4-3-1-----1-------3-1---------6-3-1
G-------0h2---------------------1-------------------5------
D-0h2h3-----------------------2-------------------4--------
A---------------------------------------------0h5----------
E----------------------------------------------------------


E----------------8-8---8----8---8---8----10--11-12\-5------
B-------------------------------8---8-----------------6---5
G-3---4b(5)---10----------------------------------------5--
D---3----------------8-------------------------------------
A------------------------10---9---8------------------------
E-----------8\-------------------------8---8---------------


E-5-8p7p6p0---------------------1-----------------------
B-----------8p7p6p0-----------1---3p1-----------1-------
G-------------------7p6p5p0h2---------0-2p0-------2p0---
D-------------------------------------------0h2-------2-
A-------------------------------------------------------
E-------------------------------------------------------

                                   Trill Picking
E----------------------------------------------------12-
B-------------------------------10/17-17-17-17-17-17-13-
G-------------------------------10/17-17-16-15-15-14----
D-0-----0-----------------------------------------------
A---3p0---3p0-0-------0-3b(4)r3-------------------------
E---------------3p0-3-----------------------------------


E---------8----------------------------------------------
B-11b(13)---11p8----------------------------------------6
G----------------10-11\10-p8----8------------------------
D----------------------------10---10--------------3-5/7--
A------------------------------------10-9p8p0------------
E---------------------------------------------4h5--------


E-----------------------------------------12------------
B---5---------------------------5------11-13------------
G-----5\4p0-4p0-----------4-6-7---0-4--10-14------------
D-7-------------4-----4-7-----------5\--9-15------------
A-----------------4h5------------------10---------------
E---------------------------------------------1b(3)-3h5-


E-------------------------------5-----------
B---------------------------------6---------
G---------0-2-0-----5---5-7b(9)-----(7)r5-5-
D-----0h2-------1h2---7---------------------
A-3-----------------------------------------
E---3---------------------------------------

              Tap         Tap          Tap
E-------------------------------------------------------
B-----------------------------------------------------8-
G-5h7p5h7h5h7-9p5h7p5h7p5-10p5h7p5h7p5-12p5h7p5h7p5-7---
D-------------------------------------------------------
A-------------------------------------------------------
E-------------------------------------------------------


E-7b(8)-
B-------
G-------
D-------
A-------
E-------


Second Solo

E--8-------8--------8-------------------5------------------
B-(13)r11-(13)r11--11b(13)-8p7p6\5--------5-8-5------------
G----------------------------------7b(9)--------7b(9)r7p5--
D---------------------------------------------------------7
A----------------------------------------------------------
E----------------------------------------------------------


E------------------------------13-14-15-11-12--------------
B-----------------16b(17)-(17)----------------13----13-12--
G-5b(7)r5/7b(9)r7--------------------------------12--------
D----------------------------------------------------------
A----------------------------------------------------------
E----------------------------------------------------------
                             A.H.
E----------------------------------------------------------
B-11-10\8---6h8p6---------------------8-----8-------8------
G---------8-------7-10\8-7-5----------7b(9)-7-5---5-7b(9)--
D----------------------------7b(8)--------------7----------
A---------------------------------10\----------------------
E----------------------------------------------------------


E----------------------------------------------------------
B-8------8-------------------------------------------------
G-7b(9)-(9)r7-5-7p5-----5------------------2p0---0---------
D-------------------7p5---7\-------0-3-4h5-----3---1h2-----
A----------------------------3-4h5---------------------3-2-
E----------------------------------------------------------


E-----------------------------------------12----------------
B---------------------------------15b(17)----15b(17)-15b(17)
G-----------------------------------------------------------
D---------------0-------------------------------------------
A-1p0-----0-1h2---2/3b(5)r3b(5)r3---------------------------
E-----2h3---------------------------------------------------


E-12--------------------------------------13-15-13\12----12-
B----15b(17)-15b(17)r15b(19)-13-15-15b(17)------------14----
G-----------------------------------------------------------
D-----------------------------------------------------------
A-----------------------------------------------------------
E-----------------------------------------------------------


E----------------------------------------13-10-12p10--------12
B-------13p12-11-10-8-----------------10-------------12\-11-13
G-13-12---------------9-8-7--------11----------------12\-10-14
D---------------------------7-10-12-----------------------9-15
A--------------------------------------------------------10---
E-------------------------------------------------------------


E-15-----------------------------------------------------
B-15-----------------------------------------------------
G-16-12-14b(16)r14-11-11b(12)\-14p12p0h4p0h2p0-----------
D-15-------------------------------------------0h2p0-----
A----------------------------------------------------2h3-
E--------------------------------------------------------

                                       Tap     Tap
E-------------------------------------------------------
B-------------------------------------------------------
G---------5\3---3---------------------------------------
D-----5-7-----5---5--4p0---1h2--------------------------
A-5/7--------------------2-----3-2-1p0--------------10--
E--------------------------------------3-2-1/8-3/12-----


E---------------------------------------------------------
B---------------------------------------------------------
G----------------------------------10-------12-14p12p0----
D-------------10-12-10----10-10/12----12/14------------14-
A-10-12-10-12----------12---------------------------------
E---------------------------------------------------------


E-------------------12h13p12-----------------------
B-------12h13h14h15----------15p14p13p0------------
G-12-14---------------------------------14p13p12p0-
D--------------------------------------------------
A--------------------------------------------------
E--------------------------------------------------


E--------------------------------------------5-------8-
B-13b(15)r13b(15)r13-6-6-6-6-7-7-7-7-8-8-8-8-5-6-8-5-8-
G--------------------5-5-5-5-5-5-5-5-7-7-7-7---7-9-5---
D------------------------------------------------------
A------------------------------------------------------
E------------------------------------------------------
 Comments (click here to add a non-facebook comment)
Very good job. Just wish I would have found this before I took the time myself. Was going to post a tab, but you've got it nailed!
-logansams | 12/1/2008
I have been looking everywhere for this song. Thank You!!!!!!!!!!!!!!!!!!!!!!!!!!!!!!!!!!!!!!!!!!!!!!!!!!!!!!!!!
-cnielsen1 | 3/31/2009
Home | FAQs | Privacy | Terms | Advertise | Contact
Top 100 Tab Sites