Give Kudos?
Are you sure you want to give kudos to STRAWHATS7?

Add To Songbook?
Are you sure you want to add this song to your songbook?


3,147 bands | 37,547 songs
Search: Register FREE! | Login
Browse Songs:
Browse Bands:
Tool Panel
Discuss This Song

1 2 3 4 5



Brad Paisley - Jingle Bells (Tab)
Album: A Brad Paisley Christmas (2006)
Submitter: STRAWHATS7 (0) on 11/20/09 1 comment
Month Views: 578 | Total Views: 4,488
Moderator: Ray Terry | Report This Song?
Song Tools

Comment

Songbook

Kudos

Show Chords

Print

Brad Paisley:Jingle Bells

Transcribed by Stavros Angelakis 10/24/2011
This is my version
based on Cal Van Etten 1/22/08
Hope this helps


E-----0-0-0-------0----3-------------------------
B------------5-5------5-----3--------------------
G------------5-------5-----5----3b(5)r(3)b(5)r(3)-
D---10--------------------3----2------------------
A-----------------------------3-------------------
E-3/8-----7-6-----5-4----3-------------------------


E-------3--------------------
B-0h1----1--------------------
G-----0-------0-----0------0- Play 4x
D---------0h5---0h2----0h5---
A----------------------------
E----------------------------


Main Melody

E---------------0-3-------------------------------------5-
B-5---5-5-5-5-5-------3-5-3-------------6-6---6-5---------
G-4h5-5-4-3-3-2-3---5---5-3b(5)r3-----------------7b(9)---
D---------------2-----------------5h6h7-7-6-6-------------
A---------------------------------------------------------
E---------------------------------------------------------


E------------3----------------------0-3---------0-----------
B--5-------5----------5---5-5-5-5-5-------3/5--------5/10-10-
G----7/5br------------4h5-5-4-3-3-2-3---5-----5b(7)--5/10-10--
D-----------------------------------2-----------------------
A-----------------------------------------------------------

 
E----------------------0--------------------------
B-------6--------5/8-8----------------------------
G-12\10---(9)br7---------5b(7)-5b(7)r5------------
D-14\12------------------------------------------
--------------------------------------------------
E--------------------------------------------------

-
E------------------------------------------------------------
B------------------------------------------------------------
G------------------------------------------------------------
D------------------------2-0h2p0--------------------------14-
A--------------------------------3---------------------------
E----------------0h1-2/3-----------3b(4)r3/---12h13-14/15----

* bend behind the nut
E----------------------------------------------------------
B------------------------------------------------------8-8-
G--------------------------------------------------------7-
D-12h14p12--------------------3-2h3r2----*-------7h8h9------
A----------15-12b(13)r12\1------------5-0b-------------------
E--------------------------3/5-------------------------------


E--------------------12-10-8--------------12-10h12p10-8h10p8------
B----------------------------8-------3/12--------------------10---
G-10-7b(8)-9h10-11/12----------------3/12-------------------------
D-----------------------------------------------------------------
A----9b(10)-------------------------------------------------------
E-----------------------------------------------------------------


E-------------------3-3------|-----0-0-0-------0----3----------------------
B-----6-6-6-6-5-5-6-3-3-6\---|------------5-5------5-----3-5-----------------
G-----5-5-5-5---3-4-------4-5|------------5-------5-----5------3b(5)r3b(5)r3-
D-2/7---6-6-5-5--------------|---10--------------------3------2--------------
A-3/8---------------------2-3|-------------------------------3---------------
E----------------------------|-3/8-----7-6-----5-4----3----------------------



E---------------------------------------------|----------------
B------------------------------------------11-|---5---5-5-5-5-5
G------------------------------------------10-|---4h5-5-4-3-3-2
D-------------------------------------------9-|-5--------------
A---------------------5h6h7-5h6h7-5-7-5/10-10\|----------------
E-3-1-1-1-1-1-0-0-1/5-------------------------|----------------


E--3-----------3--------------------13-13-13----13---12-12---------
B-5---3----3b5----------------------------------------------------
G----5--5x---------------12h13h14------------14----12------14h15h16
D------------------------------------------------------------------
A------------------------------------------------------------------
E-------------------------------------------------------------------


E-15-15-13-----------|---------------------------------------
B----------15-12b(13)|---------------------------------------
G-------14-----------|---------------------------------------
D--------------------|---------2-0h2p0-----------------------
A--------------------|-----------------3---------------0h2h3-
E--------------------|-0h1-2h3-----------2b(3)-0h1h2h3-------

*since I dont have G bender , I bend behind the nut
E-------------------------------------------------------------
B----------*----1/3-6p5---5-------------5-8-5-----------3-6-3-
G---------0b(2)---------7---8-7p5-----5-------7p5-----3------
D-0h2h3/5---------------------------6---------------4--------
A---------------------------------7---------------5----------
E-----------------------------------------------------------


E-----------|-----8-----8-----8-----8-----8-----8----10--11-12\-5----------
B-----------|-----------------------8-----8-----8-----------------10p6-----
G-5p3--4b(5)|-------------------------------------------------------------
D-----5-----|---10--x-9---x-8------------------------------------------10
A-----------|-------------------x-10--x-9---x-8--------------------------
E-----------|-8\----------------------------------------------------------


E------8p6p5-----------------------------------------
B-6h10--------8-6p5p0------------5------------------------
G----------------------7p5p0-------7p5p0-----------5------
D----------------------------5h7---------7p5p0------------
A----------------------------------------------5h7--------
E------------------------------------------------------

                                   Trill Picking
E-----------------------------------------------------8-----------
B--------------------------------7/17-17-17-17-17-17--8-8-11b(13)-
G--------------------------------7/17-17-16-15-15-14-10-----------
D-7p5p0-----------------------------------------------------------
A--------5p3p0-5p3p0-3p1--------3---------------------------------
E-----------------------1-2/4-5-----------------------------------


E-8-----------------------------------------------------
B---11p8----------------------------------------6-------
G--------10-11\10p8----8--------------------------------
D-------------------10---10p8-------------3-5/7---x-----
A-----------------------------10-8\---------------------
E------------------------------------3b(5)--------------


E-----------------------------------------13-|-----------
B-5-------------------------------5-0--11-12-|-----------
G---5p4---4-----------------4-6-7---0--10-11-|-----------
D-------5---5p4---------4-7---------5\--9-10-|-----------
A-------------------4h5----------------10----|-----------
E--------------------------------------------|-1b(3)/5-


E---------------------------------5-----------
B-----------------------------------6---------
G---------------------5---5-7b(9)-----(7)r5-5-
D---------5---7p5-------7---------------------
A-3---5/7---x-----6h7-------------------------
E---x---------------------------------------

              Tap         Tap          Tap
E-----------------------------------------------------------
B--------------------------------------------------------12b-
G-5h7p5h7h5h7-9p5h7p5h7p5-10p5h7p5h7p5-12p5h7p5h7p5-7/12---
D-----------------------------------------------------------
A-----------------------------------------------------------
E----------------------------------------------------------




Second Solo

E--8-------8--------8-------------------5--------------------
B-(13)r11-(13)r11--11b(13)----11\5----------8-----------------
G----------------------------------7b(9)-x--------9\7b9r7p5--
D-----------------------------------------------------------7-
A-------------------------------------------------------------
E-----------------------------------------------------------


E------------------------------12-13-14-15-11h12---------
B-----------------15b(17)-(17)-------------------13----13-12--
G-5h7b(9)-------------------------------------------12----
D----------------------------------------------------------
A----------------------------------------------------------
E----------------------------------------------------------
                             
E---------------------------------------------------------------
B--------------------------------------------5---5--------------
G-15-14p12----10h12p10----10-----------H-----7b9-7b9r7p5---5-7b9-
D----------13----------12----13-12-10-10-----------------7-------
A----------------------------------------------------------------
E----------------------------------------10/3--------------------


E----------------------------|------------------------------
B-5------5-------------------|------------------------------
G-7b(8)-(8)r7p5-7p5-----5----|--------------2p0---0---------
D-------------------7-5---7\-|------0-3-4h5-----3---1h2-----
A----------------------------|3-4h5---------------------3-2-
E----------------------------|------------------------------


E-----------------------------------------12----------------
B---------------------------------15b(17)----15b(17)-15b(17)
G-----------------------------------------------------------
D---------------0-------------------------------------------
A-1p0-----0-1h2---2/3b(5)r3b(5)r3---------------------------
E-----2h3---------------------------------------------------


E-12--------------------------------------13-15-13p12----12-
B----15b(17)-b(17)r15b(19)-13-15-15b(17)--------------14----
G-----------------------------------------------------------
D-----------------------------------------------------------
A-----------------------------------------------------------
E-----------------------------------------------------------


E----------------------------------------------13-13-12p10--------12
B-------13p12-------------------------------10-------------12\-11-12
G-14-12-------15-14-12-------------------11----------------12\-10-10
D----------------------14-13p12----11h12------------------------9-11
A-------------------------------13------------------------------10---
E-------------------------------------------------------------


E-15------------------7p5--------------------------
B-15--------------------------------------------
G-16-12-14-11-11b(12)\----5p0-4p3p2p0----------------
D-15-----------------------------------0h2p1p0---------
A----------------------------------------------0h2h3--
E-----------------------------------------------------

                                          
E-------------------------------------------------------
B---------------------------------------------------------
G---------5\3---3------------------------------------------
D-----5-7-----5---5--3p0---1h2--------------------0-3p2p1p0h
A-5/7--------------------2-----3-2-1p0---------------------
E--------------------------------------3-2-1/8/12----------

E-------------------------------------------------------
B-------------------------------------------------------
G---------------------10-------12-14p12p0----12h14-----
D-h2h5t7p5p2p0----/12----12/14------------14-----------
A------------------------------------------------------
E-------------------------------------------------------


E-------------------12h13p12-----------------------
B--------0h13h14h15----------15p14p13p0------------
G---------------------------------------14p13p12p0-
D--------------------------------------------------
A--------------------------------------------------
E--------------------------------------------------


E--------------------------------------------5-------8-
B-13b(15)r13b(15)r13-6-6-6-6-7-7-7-7-8-8-8-8-5-6-8-5-8-
G--------------------5-5-5-5-5-5-5-5-7-7-7-7---7-7-5---
D------------------------------------------------------
A------------------------------------------------------
E------------------------------------------------------
 Comments (click here to add a non-facebook comment)
I Have made some changes, I hope for the better
-STRAWHATS7 | 2/12/2011
Home | FAQs | Privacy | Terms | Advertise | Contact
Top 100 Tab Sites