Give Kudos?
Are you sure you want to give kudos to mooman2679?

Add To Songbook?
Are you sure you want to add this song to your songbook?


2,862 bands | 36,210 songs
Search: Register FREE! | Login
Browse Songs:
Browse Bands:
Tool Panel
Discuss This Song

1 2 3 4 5



Brad Paisley - Me Neither (live From Muddi Gras) (Intro)
Album: Who Needs Pictures-Part II (2008)
Submitter: mooman2679 (2) on 4/30/05 3 comments
Month Views: 12 | Total Views: 4,947
Sound Byte: Listen
Moderator: Ray Terry | Report This Song?
Song Tools

Comment

Songbook

Kudos

Show Chords

Print

I love the intro he does on this song, Hope you like it...

Please rate and comment!....


mooman2679 at gmail.com


e----------------------------------------------
B----------------------------------------------
G------3h5-5p3-3h5-5p3-3br--3h5-5p3-3h5-5------
D------3h5-5p3-3h5-5p3-3br--3h5-5p3-3h5-5------
A------3--3---3---3---3-----3--3---3---3-------
E--12\-----------------------------------------

e-----------------------------------------------------------
B-----------------------------------------------------------
G--------5-3b-3h5p3p0-0-------------------------------------
D--0h3h5---------------5p3p0-3p1-1br------------------------
A--------------------0----------------3p0-1p0-1p0-1p0-1/3~--
E---------------------------0---0-----0--3---3---3---3------


00:14

Spoken
"Welcome to Muddi Gras everybody!"


e----------------------------------
B-----------------6---6-6-6/13-----
G--3h5-5--3h5-5---5-5-5-5-5/12-----
D--3h5-5--3h5-5-3--3-3---3---------
A--3----3-3------------------------
E----------------------------------


MAIN INTRO

e------------------------------------
B------------------------------------
G--7br-5~----------------------------
D----------7brbr-7br-5~-5~-5~/12-----
A------------------------------------
E---------0-----0---------------12\--

e--------------------------------8----
B-------------------------------------
G-------------0--0--------5-7-5/9-----
D----------0-----------5h7------------
A-----0h1h2-2b-2/-3h5/7---------------
E--2br--------------------------------
 Comments (click here to add a non-facebook comment)
sounds good to me

-sweethomealabam | 5/1/2005
Bad I like it.
-yinielin | 5/24/2005
Thanks for the rating!
-mooman2679 | 5/24/2005
Home | FAQs | Privacy | Terms | Advertise | Contact
Top 100 Tab Sites