Give Kudos?
Are you sure you want to give kudos to calve66?

Add To Songbook?
Are you sure you want to add this song to your songbook?


3,284 bands | 38,006 songs
Search: Register FREE! | Login
Browse Songs:
Browse Bands:
Tool Panel
Discuss This Song

1 2 3 4 5



Brad Paisley - Mr. Policeman (solo #1) (Solo)
Album: 5th Gear (2007)
Submitter: calve66 (17) on 11/12/08
Month Views: 1,504 | Total Views: 16,435
Moderator: Ray Terry | Report This Song?
Song Tools

Comment

Songbook

Kudos

Show Chords

Print

Brad Paisley:Mr. Policeman (Solo #1)

Transcribed by Cal Van Etten 11/12/08

Note: Smokin' fast solo  with tons of cool licks !
Enjoy ! ~ Cal


E---------------------0---5-3p0---0---------0-------------------
B---------------1---1---3-------3---4\3-1-----1---3-1-----3-----
G-----------0-----2-----------------------2-----0-----3p0---3p0-
D-----2-2-3---2-------------------------------------------------
A-2/3-----------------------------------------------------------
E---------------------------------------------------------------


E----------------------------------------------------------------
B-------------------------------------------6---0---------------0
G---0---------------------0-----0-----0-----------5--------------
D-5---3p0---0---------------2p0---5/9---5/7---7-----5p4p3\2------
A---------5---5-3p0-----------------------------------------5/7--
E-------------------1h2h3----------------------------------------


E-----6-----------------------------------------------------
B---8---8--------------------------5-6-5\-----5-3-----------
G-8-------10-9-8-------------------5-5-5\---0-5-3-0---------
D----------------10-9-8-------------------3---------3-------
A------------------------10-8\-5/7--------------------5p3p2-
E-----------------------------------------------------------

E-3p0--------------------------------------------------------
B-----0-----0----------0-------------------------------------
G-------6\5----5p3p0-----------0---------------------------0-
D--------------------5---3p0-----3p0---0-------------0-2p0---
A----------------------------5-------4---1h2---0-1h2---------
E--------------------------------------------3---------------
 Comments (click here to add a non-facebook comment)
Home | FAQs | Privacy | Terms | Advertise | Contact
Top 100 Tab Sites