Give Kudos?
Are you sure you want to give kudos to calve66?

Add To Songbook?
Are you sure you want to add this song to your songbook?


3,284 bands | 38,006 songs
Search: Register FREE! | Login
Browse Songs:
Browse Bands:
Tool Panel
Discuss This Song

1 2 3 4 5



Brad Paisley - Mr. Policeman (Intro)
Album: 5th Gear (2007)
Submitter: calve66 (17) on 11/12/08 1 comment
Month Views: 644 | Total Views: 5,891
Moderator: Ray Terry | Report This Song?
Song Tools

Comment

Songbook

Kudos

Show Chords

Print

Brad Paisley:Mr. Policeman (Intro)

Transcribed by Cal Van Etten 11/12/08

Note: This must be played with a pick and fingers
together or there is no way to get it up to speed.
Great intro, had fun taking this one off. Enjoy ! ~ Cal


E---------------------------------------------------------
B---------------------------------------------------------
G-3p0---0-------0-3p0---0-------0-3p0---0-------0---------
D-----0---3p0---------0---3p0---------0---3p0-----3p0---0-
A-------------5---------------5---------------5-------3---
E---------------------------------------------------------


E-----------------------------------------------
B-----------------------------------------------
G-------3p0---0-------0-3p0---0-------0---------
D-----------0---3p0---------0---3p0---------3---
A-1p0---------------5---------------5---3-5-1-3-
E-----3---------------------------------1-3---1-

E---------------------------------------------------------
B---------------------------------------------------------
G-3p0---0-------0-3p0---0-------0-3p0---0-------0---------
D-----0---3p0---------0---3p0---------0---3p0-----3p0---0-
A-------------5---------------5---------------5-------3---
E---------------------------------------------------------


E-----------------------------------------------------------------------
B-----------------------------------------------------------------------
G-------3p0---0-------0-3p0---0-------0---------------------------------
D-----------0---3p0---------0---3p0-------------------------------------
A-1p0---------------5---------------5---3-3-3-3-3-3-3-3-3-3-3-3-3-3-3-5-
E-----3---------------------------------1-1-1-1-1-1-1-1-1-1-1-1-1-1-1-3-
 Comments (click here to add a non-facebook comment)
Hey man, great tab. What picking pattern do you use? I'm having trouble with this...

-superslip103 | 5/22/2017
Home | FAQs | Privacy | Terms | Advertise | Contact
Top 100 Tab Sites