Give Kudos?
Are you sure you want to give kudos to tatsguitars?

Add To Songbook?
Are you sure you want to add this song to your songbook?


3,284 bands | 38,006 songs
Search: Register FREE! | Login
Browse Songs:
Browse Bands:
Tool Panel
Discuss This Song

1 2 3 4 5



Brad Paisley - Mr Policeman Part 2 (Tab)
Album: 5th Gear (2007)
Submitter: tatsguitars (0) on 7/8/09
Month Views: 481 | Total Views: 3,513
Moderator: Ray Terry | Report This Song?
Song Tools

Comment

Songbook

Kudos

Show Chords

Print

heres the second solo lick

e--------------------------
b---------5-----------------
g---5---5----7----------------
d-----7---------------------
a--------------------------
e--------------------------

heres the third solo lick

e---5-------------------------------------
b-----8--5-----5----------------------------
g-----------7----7pb--7p5-----------------------
d-------------------------7---------------
a----------------------------------------
e----------------------------------------

heres number 4

e----------------------------------------------
b--5--------3-------3-----------------------------
g----5--------5p3------3b--0---0-----------------------
d------6s5--------5----------5----3p0---0---------------
a-------------------------------------5---5--3-0---
e----------------------------------------------

heres the 5th solo lick
                       dont be accurate with that slide
e----------------------------------------
b----------------------------------------
g---------0-------0------------------------
d-----------2p0-----0--0------0----------------
a-----1h2--------------4s8----0-----------------
e--2b--------------------------------------


heres the sixth lick

e------------------------------------
b-------6-----------------------------
g--------------4--5--------------------
d---5s7----7--------5---------------------
a------------------------------------
e------------------------------------


lick 7

e-------------------------------------------
b------------8--11-8----------------------------
g----------8---------10-9p8-----------------------
d--------9------------------10--9p8---------------
a---5s10----------------------------10-8-----------
e-------------------------------------------

lick 8
e-----------------------------------------
b-------5--6-5---------5-3b---------------------
g-------5--5-5---------5-3b--------------------
d--------------6s5-3-5-5-----5-3-0------------------
a---5s7--------------------------------------
e----------------------------------7-------

heres the last solo lick 
e--------------------------------------------------
b--8p5p0---0---------0------------------------------------
g--------6---5p3p0------------0---------------------------0--
d------------------5----3-0-----3p0---0-------------0-2p0-----
a---------------------------5-------4---1h2---0-1h2---------
e-------------------------------------------3------------





 Comments (click here to add a non-facebook comment)
Home | FAQs | Privacy | Terms | Advertise | Contact
Top 100 Tab Sites