Give Kudos?
Are you sure you want to give kudos to tatsguitars?

Add To Songbook?
Are you sure you want to add this song to your songbook?


3,284 bands | 38,006 songs
Search: Register FREE! | Login
Browse Songs:
Browse Bands:
Tool Panel
Discuss This Song

1 2 3 4 5



Brad Paisley - Mr Policeman Part 3 Second Solo (Tab)
Album: 5th Gear (2007)
Submitter: tatsguitars (0) on 7/8/09
Month Views: 487 | Total Views: 3,610
Moderator: Ray Terry | Report This Song?
Song Tools

Comment

Songbook

Kudos

Show Chords

Print

lick in second verse

e-------3------------------------------
b-------x--6p3p0---0-------------------------
g----0-----------5---5p4p0----0---------------
d--5-------------5---------5---5p3p0----------
a-------------------------------------5p3p0--------
e--------------------------------------------4p3-----

solo 2 lick 1

e-------------------------------------------------
b-------------------------------------------------
g-------------------------------------------------
d-------------------------------------------------
a------------------1p0-1p0---1p0---0------------------------
e--1h3-3-3-x-3-3-x---------3-----3---------------------------

solo 2 lick 2

e--------------------------------------------
b------------------------------3-------------
g-------------------0----3p0---3p0-----------
d----------------3----5------5---------------
a--------0-3-4-5-----------------------------
e--3-4-5-------------------------------------

solo2 lick 3

e--------------3--------------------------
b-------3--5p6---6-3b-0---0---------------
g-3-5p6-----------------5---3---0---------
d-----------------------------5---5-3---0-
a-------------------------------------5---
e-----------------------------------------

solo 2 lick 4

e-----3------7---------------------------------------------
b------0-------10p7----7-----------------------------------
g---------9b---------9---10-9-7---6------5-----------------
d-------------------------------8----8s7---8--7p5----4s3---
a--3p2---------------------------------------------6-------
e----------------------------------------------------------

e----------------------------------------------------------
b----------------------------------------------------------
g----------------------------------------------------------
d-----2---0------------0-----------------------------------
a---4---3----2-1p0-----------------------------------------
e------------------2h3-------------------------------------

last lick of solo 2

e----------------------------------------------------------------
b-5p0-3p0-4------------------------------------------------------
g-----------5-0h2-0---------0-----------0----------------------------0
d--------------------5-2p0----3b--0---0---5-3---0----------2----0-2p0
a-----------------------------------5---------5---5-3--1-----1h2-
e--------------------------------------------------------2--------


have to post another later



 Comments (click here to add a non-facebook comment)
Home | FAQs | Privacy | Terms | Advertise | Contact
Top 100 Tab Sites