Give Kudos?
Are you sure you want to give kudos to tatsguitars?

Add To Songbook?
Are you sure you want to add this song to your songbook?


3,284 bands | 38,006 songs
Search: Register FREE! | Login
Browse Songs:
Browse Bands:
Tool Panel
Discuss This Song

1 2 3 4 5



Brad Paisley - Mr Policeman Part 4 Third Solo (Tab)
Album: 5th Gear (2007)
Submitter: tatsguitars (0) on 7/8/09
Month Views: 459 | Total Views: 3,084
Moderator: Ray Terry | Report This Song?
Song Tools

Comment

Songbook

Kudos

Show Chords

Print

this ones in drop d

e----------------------------------------------
b----------------------------------------------
g-----------------------------------------------
d-----------------------------------------------
a-----3-----4-----5-----6-----7-----8------9------10---
d-0h5---0h6---0h7---0h8---0h9---0h10-0h11----0h12-

second solo lick

e------------------------------------------------------------
b------------------------------------------------------------
g---------------------------------------12-------14---------14--
d------------------10-12p10-12p10-12s14----14s16----16h17----------
a-10-10---10-10h12--------------------------------------------
d-------12----------------------------------------------------

e----------------------------15-------16--------17--19p17-----
b---------14--------14s15-16----17s19-----17s19---------------
g---16h17----16h17---------------------------------------------
d--------------------------------------------------------------
a--------------------------------------------------------------
d--------------------------------------------------------------

third solo lick

e--------19-19-19b-17----15--x-
b--17-15-17-17-17b-17-15-15--x-
g------------------------------
d------------------------------
a------------------------------
d------------------------------

4th solo lick
e--14-12--------------------------------------------------
b-----------15p14-12-14-13-12p10--------------------------
g--------14----------------------10-12-11-------10p11-9p7---9p7
d---------------------------------------------------------9-----9
a-------------------------------------------12-------------
d----------------------------------------------------------

5th solo lick
e-----7------------------------------------------------------------
b-------10p7---7---------------------------------------------------
g--9b--------9---9-7p0---7p0----6p0----4p0-4------------------------
d----------------------9-----8-----6--------------------------------
a----------------------------------------------7p5p4----------------
d----------------------------------------------------7p5p4-7p5p4--4p2p0

any more questions send me a message thanks




 Comments (click here to add a non-facebook comment)
Home | FAQs | Privacy | Terms | Advertise | Contact
Top 100 Tab Sites