Give Kudos?
Are you sure you want to give kudos to tatsguitars?

Add To Songbook?
Are you sure you want to add this song to your songbook?


3,284 bands | 38,006 songs
Search: Register FREE! | Login
Browse Songs:
Browse Bands:
Tool Panel
Discuss This Song

1 2 3 4 5



Brad Paisley - Mr Policeman (Tab)
Album: 5th Gear (2007)
Submitter: tatsguitars (0) on 7/8/09
Month Views: 533 | Total Views: 5,731
Moderator: Ray Terry | Report This Song?
Song Tools

Comment

Songbook

Kudos

Show Chords

Print

     1st lick
e-----------------------------------------
b---------------3--------------------------
g-----7p5p0--------3-0---------------------------
d------------5---------3p0--------------------
a--------------------------5p3-3--------------
e--------------------------------5p0-3--------

      2nd lick
e------3------------------------------------
b---------6p3---------------------------------
g---5b---------5-3p0------------------------------
d--------------------5-3p0----------------------
a--------------------------5-3p0-----1h2-0---5-------
e---------------------------------2-----------

               chorus lick
e----------------------------------------------
b------------3----------------------------------
g---------0----0---------------------------------
d----4h5----------5-0-------------------------------
a----------------------------------------------
e----------------------------------------------

           heres the first solo work on these licks one at a tome and get them sounding
clean slow then build up the speed

solo lick 1

e-------------------------------------------------
b-------------------------------------------------
g------3-4------------0------------------------------
d--3-4-3-4------0-0-3---2---------------------------------
a--3-4-1-2---2b-----------------------------------------
e--1-2----------------------------------------------

i have to post another to cover the rest of the song 
 Comments (click here to add a non-facebook comment)
Home | FAQs | Privacy | Terms | Advertise | Contact
Top 100 Tab Sites