Give Kudos?
Are you sure you want to give kudos to livewire8?

Add To Songbook?
Are you sure you want to add this song to your songbook?


2,732 bands | 35,202 songs
Search: Register FREE! | Login
Browse Songs:
Browse Bands:
Tool Panel
Discuss This Song

1 2 3 4 5



Brad Paisley - Mud On The Tires (ending) (Tab)
Album: Mud on the Tires (2003)
Submitter: livewire8 (0) on 7/6/11
Month Views: 1 | Total Views: 2,997
Moderator: Ray Terry | Report This Song?
Song Tools

Comment

Songbook

Kudos

Show Chords

Print

Brad Paisley- Mud On The Tires

b=bend
r=release
h=hammer on
p=pull off
v=vibrato
s=slide
/=slide up
\=slide down


OUTRO:
e-------------------------------------------------
B----15-15----15-15---15-15----15----15-----------
G-12-12-0--12-12-0--0-12-12-12-12-12-12-12--------
D-------------------------------------------------
A------------------------------------------0-0-0--
E-------------------------------------------------

e-------------------------------------------------
B-------------------------------------------------
G-------------------------------------------------
D-------------------------------------------------
A-5bbbr-x-x-x---x-x-------------------------x-x---
E-------x-x-x-3-3-x-2h3-x-3-x-3-2h3-3-3-4h5-x-x---

e-----------------------------0-------------------
B-----------------1s2-x-x-2s3---0-3-0---------3-5-
G-----------1h2-x-1s2-x-x-3s4---------2br---4-----
D-------0-2-------------------------------5-------
A-3h4-x-------------------------------------------
E-------------------------------------------------

e-------------------------------------------------
B-5p3---------------------------------------------
G-----2p0---0-------------------------------------
D---------4---2p0---0-----------------5-----7-9---
A-----------------4---4-2p0-------5-7---7s9-------
E---------------------------4-5s7-----------------

e---------------------7-x-7-5---5-----------------
B-------------7-8s10v-----------------------3-3-3-
G-6-7---9-7-9-----------------7---7br-------2-2-2-
D-----9---------------------------------------x-x-
A-------------------------------------2-0-2---2-2-
E-------------------------------------------------

e-------------------------------0-----------------
B-x-5-10-10----------8-7s5-5\-----------2---------
G-x-4-9--9--9b--------------------4br-----2br---0-
D-------------------------------------4-------4---
A--------------9-8-7----------0-------------------
E-------------------------------------------------

e-------------------------------------------------
B----------------------------------3--------------
G-2p0----0-------------------------4--------------
D-----4b-----0-4p2-0---0-----------5-4v-4h5-4-2---
A----------4---------4---0------------------------
E--------------------------0-2-2bv----------------

e-------------------------------------------------
B-------------------------------------------------
G-------------------------------------------------
D-4p2p0-------------------------------------------
A-------4-4b--------------------------------------
E-------------------------------------------------
 Comments (click here to add a non-facebook comment)
Home | FAQs | Privacy | Terms | Advertise | Contact
Top 100 Tab Sites