Give Kudos?
Are you sure you want to give kudos to axehappy?

Add To Songbook?
Are you sure you want to add this song to your songbook?


2,668 bands | 34,775 songs
Search: Register FREE! | Login
Browse Songs:
Browse Bands:
Tool Panel
Discuss This Song

1 2 3 4 5





Brad Paisley - Munster Rag (part 2) (Tab)
Album: Part II (2001)
Submitter: axehappy (82) on 3/13/02 4 comments
Month Views: 19 | Total Views: 8,835
Moderator: Ray Terry | Report This Song?
Song Tools

Comment

Songbook

Kudos

Show Chords

Print

Brad Paisley - Munster Rag (part 2)

By axehappy - axehappy at countrytabs.com

This part starts after all other instruments have had their solos.
Around [1:56] on the recording, and continues to the end of the song.

I've given my best shot at tabbing this part, but most of it is
probably wrong...very difficult part of the song to play!
Where I have indicated with * , I THINK Brad slides his fingers up and
down over the pickups on the strings indicated, picking out deadened
harmonics, but I couldn't be sure without seeing him play.
Random noise will cover you through that part! :-)

Enjoy!

***********************************************************************

br   =   bend & release                          /   =   slide up

p    =   pulloff                                 h   =   hammer on

bh   =   bend & hold                             r   =   release bend

x    =   dead note                               \   =   slide down

sp   =   speed pick                              b   =   bend

***********************************************************************


E--15br-----------------------------------------------
B----------0-8p0--0--0--------------------------------
G-------7/9------7--7-----------------0---------------
D---------------9--9---5h7-4h5-5-7p0---0-4p0-2p0------
A-------------------------------7----7----------2-0-0-
E--------------------------------------------------3--


E--------------------------0---0---------------------
B---------------------0-2/3-----3-1-0----------------
G--------------0-2-3-4------2bh----2-2r-0------------
D-------0-2-3-4--------------------------2-0---------
A--2-3-4------------------------------------3-2------
E----------------------------------------------3-2br-


E---------------------------------------------------------------------
B-------------------------------7h8h10p8p7----------------------------
G--------------------------7h8h9----------9p7-9---7p5p0-5-------------
D------------------------------------------------------7-5h7p5p0-0-5\-
A-------1h2-x-x-----1h2-2/--------------------------------------------
E--0-x-x-------0-x-x--------------------------------------------------


E--------------------------0h1h2h3-3/5-0-0-0sp-0sp--------7-10p8p7-
B---------------------3---3-------------5--5sp-7sp/10-8h10---------
G------------2---2-3/4-3h4-----------------------------------------
D-------0-2/4-3/4--------------------------------------------------
A--0h1/2-----------------------------------------------------------
E------------------------------------------------------------------


E--------------------------------------7--7--7--7--7--7------------
B--10p8p7-10p8p7---------------------------------------10-7-7------
G---------------9p7p0----------------9b-9b-9b-9b-9b-9b-----9-7-0-2-
D--------------------9p7p0------------------------------------9----
A-------------------------7p5p0------------------------------------
E------------------------------7p5p0-------------------------------


E--------------------------0-/13-11-10------0---------------------
B-------------------------------------14-13-----------------------
G--------------2--4--7-9/12-----------------14-13-11-10-9-9-------
D--4-0-------------7b--------------------------------------11-12--
A-----2-0----5b-7b------------------------------------------------
E--------3-2------------------------------------------------------


E------------------------------------------------------------
B----------------------12-10p0--9-7-0-7----0-0---------------
G----13-11-----11-13p11------------9---9-7--7-9-7h8----------
D--13-----12h13---------------------------9--------9-7-------
A-----------------------------------------------------9-8-7--
E----------------------------------------------------------7-


E-------------------------------------------------------------------
B------------------------6-5-3---1-1p0------------------------------
G--------5-----3--5p3-3--5-5-3-0-0-0--------------------------------
D--------5-----3--5p3-3-5-5-5---------------------------------------
A-----5/7---3h5--5---5----------------------0-1/2---0-1/2-----0-1/2-
E--8-8---------------------------------0-2-3-----2-3-----3-3-3------


E-----------3p1p0----------------------------------------------------
B----------------3p1p0-3p2p0-----------------------------------------
G-----0---0-----------------3p1p0-3p1p0------------0-5-0-6-7-0-7-9-0-
D--2p0-2/5----------------------------------0-2-3-4------------------
A--------------------------------------0-1-2-------------------------
E--------------------------------------------------------------------

                  *see notes
E---------------------------------------------------
B------------10-------------------------------------
G--10-0-10-12--12-x-x-x-x-x-x-x-x-x-x-x-x-----------
D-----------------x-x-x-x-x-x-x-x-x-x-x-x-x\--------
A-----------------------------------------x\-0-0-0--
E--------------------------------------------0-0-0--


E------------------------------------------------------------
B------------------------------------------------------------
G------------------------------------------------------------
D------------------------------------------------------------
A-------0-2------0-2------0-3-2-0-2-0-0--------0-2------0-2--
E--0-2-3----0-2-3----0-2-3-------3---3-2--0-2-3----0-2-3-----


E------------------------5-7--------------12----------
B-------------------5-7-8------------10h12--13-12-10--
G------------------------------9-12-9-----------------
D-----------------------------------------------------
A--3-2-0-2-0------------------------------------------
E-------3---3-2-0-------------------------------------


E------------------------12\---|
B--13-12-10--12-10-------12\---|
G----------12-----12-11-9------|
D------------------------------|
A------------------------------|
E------------------------------|
 Comments (click here to add a non-facebook comment)
I saw him play it live a couple weeks ago on CMT and he does
slide up over the pickups as you indicated in the tab.
-eric wilson | 7/1/2003
hey, i would love it if you could go back
and put in the measure bars for this tab and
maybe even the time values. it would make it
a whole lot easier to figure out. it looks
like a good tab and the notes look good, im
just havin trouble knowing which part is
quarter notes, what are eighth notes, and
what are sixteenth notes. if you could do
this i would be extremely grateful.

thanx man,
cntyotlw
-cntyotlw | 10/4/2003
I can't believe this tab is rated this low!! It is a 10. There are maybe two or three SMALL errors at most. I slowed it down and matched it with his tab. 99% correct! Great job!
-logansams | 1/11/2005
Thanks for checking this over for me Logan,
and thanks for the corrections :)
I've put them into the tab.
-axehappy | 1/12/2005
Home | FAQs | Privacy | Terms | Advertise | Contact
Top 100 Tab Sites