Give Kudos?
Are you sure you want to give kudos to jpatt57?

Add To Songbook?
Are you sure you want to add this song to your songbook?


2,693 bands | 34,920 songs
Search: Register FREE! | Login
Browse Songs:
Browse Bands:
Tool Panel
Discuss This Song

1 2 3 4 5





Brad Paisley - One Beer Can (Intro)
Album: Love and War (2017)
Submitter: jpatt57 (0) on 3/19/18
Month Views: 23 | Total Views: 769
Moderator: Ray Terry | Report This Song?
Song Tools

Comment

Songbook

Kudos

Show Chords

Print

One Beer Can Intro 
Brad Paisley


    *****Drop tune to D*************


E---------------------------------------------------------------------------------------------------------------
B-----------------7/-13-13----13-13----12----12----10b-----10-8--7----5b----------3-----------------------------
G-----------------7/-14-14----14-14----12----12----10b-----11-9--7----5b----------------------------------------
D-------0------------------0--------0-------0----0-------0-----0----0-------0-5b7----7rb5--------0--------------
A---------------------------------------------------------------------------------------------------------------
E--0-3b---3b-0-------------------------------------------------------------------------------3b----3b-0---------

E---------------------------------------------------------------------------------------------------------------
B--7/-13-13----13-13----12----12----10b-----10-8--7----5b----------3--------------------------------------------
G--7/-14-14----14-14----12----12----10b-----11-9--7----5b-------------------------------------------------------
D-----------0--------0-------0----0-------0-----0----0-------0-5b7----7rb5-4--0---------------------------------
A-------------------------------------------------------------------------------3-------------------------------
E---------------------------------------------------------------------------------3b-0--------------------------
 Comments (click here to add a non-facebook comment)
Home | FAQs | Privacy | Terms | Advertise | Contact
Top 100 Tab Sites