Give Kudos?
Are you sure you want to give kudos to livewire8?

Add To Songbook?
Are you sure you want to add this song to your songbook?


2,728 bands | 35,169 songs
Search: Register FREE! | Login
Browse Songs:
Browse Bands:
Tool Panel
Discuss This Song

1 2 3 4 5



Brad Paisley - Online (ending) (Tab)
Album: 5th Gear (2007)
Submitter: livewire8 (1) on 7/5/11
Month Views: 18 | Total Views: 2,319
Moderator: Ray Terry | Report This Song?
Song Tools

Comment

Songbook

Kudos

Show Chords

Print

Brad Paisley- Online (ending)

b=bend
r=release
h=hammer on
p=pull off
v=vibrato
s=slide
/=slide up
\=slide down


e-------------------------------------------------
B---3-----------------------------------3---------
G-----0-------------------0-3p0-----------0-----0-
D-5-----0-3v------0---1h2-------3p0-3s5-----0-3---
A------------3-3v---3-----------------------------
E-------------------------------------------------

e-------------------------------------------------
B-0-3----------------------------3-------3--------
G-------0-3b-----0-----------------0--------------
D-----x--------0---3-0---------------0-3---3------
A------------0---------3-1brp0---------------5s7--
E------------------------------3------------------

e-------------------------------------------------
B---------------------------------------------3---
G-------------------2p0---3p2p0-----------------0-
D-------------2h3h5-----3-------3p2p0-----3s5-----
A-7-0h2p0-3h5-------------------------2p0---------
E-------------------------------------------------

e-------------------------------------------------
B-----3-------------------------------------------
G---------------------------0h3h4-5p3p0-0h3h4-----
D-0-3---0-0h2---------0h3h5-----------------------
A-------------3-0h3p0-----------------------------
E-------------------------------------------------

e-------------------------------------------------
B-------------------------------------------------
G-5p3p0-3b-0-3-3b-0-3b-0-3b-0-3b-0-3-3b-0-3b-0-3b-
D-------3b-0-3-3b-0-3b-0-3b-0-3b-0-3-3b-0-3b-0-3b-
A-------------------------------------------------
E-------------------------------------------------

e----------3--------------------------------------
B------------6p3---3------------------------------
G-0-3-x-5b-------5---5p3p0---0---------2-5p4p0----
D-0-3-x--------------------0---5p3p0-0------------
A-------------------------------------------------
E-------------------------------------------------

e-----3-----------3-6p3p0-------------------------
B-------6p3p0---5---------6p3p0-------------------
G-0h5---------5-----------------5s7s5p3p0-0-------
D-------------------------------------------3p0-0-
A-------------------------------------------------
E-------------------------------------------------

e-------------------------------------------12----
B---------------------------------------15b-------
G---------------------------------5s15/-----------
D-5p0-0--------5----------------------------------
A--------------5-0------------5s7-----------------
E-------2bh4p2-----0b-5s8-8-3---------------------


e-------------------------------------------------
B-15bbr-15br-15br-15bbbbbbr-12--------------12v---
G------------------------------15-14p12p0-9-------
D-------------------------------------------------
A-------------------------------------------------
E-------------------------------------------------

e-------------------------------------------------
B------------3-3---------5-5-3--------------------
G-10---5-5---3-3---5-3-5-5-5-3-3-2-0--------------
D----0-----7-----5-5-----5-5-3-------3-2p0--------
A----0-------------------------------------0-1-2--
E-------------------------------------------------

e-------------------------------------------------
B-------------------------------------------------
G---0-5-0-3p2p0---0-----------------------------7-
D---0-3---------3-0-3-2-----5-7p5p0---5-6s7-7s9---
A---------------3-------5s7---------7-------------
E-3-----------------------------------------------

e-------------------------------------------------
B-------------------------------------------------
G-9p7p0------------12\----------------------------
D-------9p7p0------12\----------------------------
A-------------5s14--------------------------------
E-------------5/----------------------------------
 Comments (click here to add a non-facebook comment)
Home | FAQs | Privacy | Terms | Advertise | Contact
Top 100 Tab Sites