Give Kudos?
Are you sure you want to give kudos to livewire8?

Add To Songbook?
Are you sure you want to add this song to your songbook?


2,732 bands | 35,224 songs
Search: Register FREE! | Login
Browse Songs:
Browse Bands:
Tool Panel
Discuss This Song

1 2 3 4 5



Brad Paisley - Online (Solo)
Album: 5th Gear (2007)
Submitter: livewire8 (1) on 7/5/11
Month Views: 2 | Total Views: 2,592
Moderator: Ray Terry | Report This Song?
Song Tools

Comment

Songbook

Kudos

Show Chords

Print

Brad Paisley- Online

b=bend
r=release
h=hammer on
p=pull off
s=slide
v=vibrato

  Em  D   C
e-0---2---0----------0--------0--------0----------
B-0---3---1------------3p0------3p0------3p0------
G-0---2---0----0-2br-------2b-------2b------2s4---
D-2---0---2--2------------------------------------
A-2-------3---------------------------------------
E-0-----------------------------------------------

e-3p0---------------------------------------------
B-----3p0--------------------------------1-1------
G---------4-3-2p0------------------------0-0------
D-----------------2p0---0----------------2-2------
A---------------------3---2p0------------3-3------
E-----------------------------3-2-0v-2h3-----2brb-

e-------------------------------2-3p2p0h2---------
B---------------------0h1-2-3p1-----------3p2p0-0-
G-----------------0-2-----------------------------
D---------0-0-2-4---------------------------------
A-0-0-2-4-----------------------------------------
E-------------------------------------------------

e-------------------------------------------------
B-0-0-1p0-----------------------------------------
G---------2p0---0-2p0-----------------------------
D-------------4-------4-2p0-----------------------
A---------------------------4-2p0-0---------------
E-------------------------------------------------
 Comments (click here to add a non-facebook comment)
Home | FAQs | Privacy | Terms | Advertise | Contact
Top 100 Tab Sites