Give Kudos?
Are you sure you want to give kudos to Seh17?

Add To Songbook?
Are you sure you want to add this song to your songbook?


2,870 bands | 36,242 songs
Search: Register FREE! | Login
Browse Songs:
Browse Bands:
Tool Panel
Discuss This Song

1 2 3 4 5



Brad Paisley - Part Two (Lead)
Album: Part II (2001)
Submitter: Seh17 (0) on 6/9/03
Month Views: 16 | Total Views: 3,663
Moderator: Ray Terry | Report This Song?
Song Tools

Comment

Songbook

Kudos

Show Chords

Print

e---------------------------------------------------------------------------------------------------
b----------------------------------------3----------------------------------------------------------
g-----2---2--2--------------------------------------------------------------------------------------
d-  2--------------------------0  2h4---------------------------------------------------------------
a-0-----0--0--0-------------------------------------------------------------------------------------
e---------------------------------------------------------------------------------------------------
Hollywood never fails to make the sequal 

For  each and every movie that does well
          
e---------------------------------------------------------------------------------------------------
b---------------------------------------------------------------------------------------------------
g---------------------------------------------------------------------------------------------------
d---------------------------------------------------------------------------------------------------
a-------0---2  4 2 0 -------------------------------------------------------------------------------
e--0-------------------0----------------------------------------------------------------------------
Why can't love be more like that?
e---------------------------------------------------------------------------------------------------
b---------------------------------------------------------------------------------------------------
g---4b-----2      2h4-------------------------------------------------------------------------------
d---------------------------------------------------------------------------------------------------
a---------------------------------------------------------------------------------------------------
e---------------------------------------------------------------------------------------------------
Where the best ones get a second chance                                                        

And that way though you're gone

e---------------------------------------------------------------------------------------------------
b-----2---------------------------------------------------------------------------------------------
g---4b----4br---------------------------------------------------------------------------------------
d---------------------------------------------------------------------------------------------------
a---------------------------------------------------------------------------------------------------
e---------------------------------------------------------------------------------------------------
It wouldn't be that long


Till I'd see you                In Part two
e---------------------------------------------------------------------------------------------------
b---------------------------------------------------------------------------------------------------
g-4    4   6----------------------------------------------------------------------------------------
d----------------------------------------------0 0 --2----------------------------------------------
a---------------------------------------------------4---2   2h2-------------------------------------
e------------------------------------------------------------------0--------------------------------

And we'd pick up where we left off
                  

When I lost you          And we'd fall in love again                            
e---------------------------------------------------------------------------------------------------
b---------------------------------------------------------------------------------------------------
g---------------------------------------------------------------------------------------------------
d----------------------------0----------------------------------------------------------------------
a----0   2  4---------------------------------------------------------------------------------------
e-0-------------------------------------------------------------------------------------------------

And change the way the story ends
E---------------------------------------------------------------------------------------------------
b---------------------------------------------------------------------------------------------------
g---------------------------------------------------------------------------------------------------
d---------------------------------------------------------------------------------------------------
a-----------------------4-----------1h3-----0     1h2-----------------------------------------------
e----------------------------------------------------------0----------------------------------------
(repeat intro)
Lookin' back we had so much to look forward to

The kind of love that deserves to be continued
e---------------------------------------------------------------------------------------------------
b---------------------------------------------------------------------------------------------------
g---------------------------------------------------------------------------------------------------
d---------------------------------------------------------------------------------------------------
a---- -------------------------------------------0  2h4--2--0---------------------------------------
e---------------------------------------------0------------------0----------------------------------
If this were only tensile town

By now they would have figured out

A way for you and I
e---------------------------------------------------------------------------------------------------
b---------------------------------------------------------------------------------------------------
g---------------------------------------------------------------------------------------------------
d---------------------------------------------------------------------------------------------------
a---4 5 7  2h4 2------------------------------------------------------------------------------------
e------------------------------0--------------------------------------------------------------------
To give it one more try

Repeat Chorus
Every lick in the chorus this time remains the same exept for the first lick, it is slightly altered
e---------------------------------------------------------------------------------------------------
b--3-3----5-----------------------------------------------------------------------------------------
g--4-4----6-----------------------------------------------------------------------------------------
d---------------------------------------------------------------------------------------------------
a---------------------------------------------------------------------------------------------------
e---------------------------------------------------------------------------------------------------

e---------------------------------------------------------------------------------------------------
b---------------------------------------------------------------------------------------------------
g---------------------------------------------------------------------------------------------------
d----------------0----------------------------------------------------------------------------------
a--7  5  4 5 ---------------------------------------------------------------------------------------
 Comments (click here to add a non-facebook comment)
Home | FAQs | Privacy | Terms | Advertise | Contact
Top 100 Tab Sites