Give Kudos?
Are you sure you want to give kudos to jpatt57?

Add To Songbook?
Are you sure you want to add this song to your songbook?


2,660 bands | 34,722 songs
Search: Register FREE! | Login
Browse Songs:
Browse Bands:
Tool Panel
Discuss This Song

1 2 3 4 5





Brad Paisley - River Bank (Solo)
Album: Moonshine In The Trunck (2014)
Submitter: jpatt57 (0) on 12/29/14
Month Views: 18 | Total Views: 2,334
Moderator: Ray Terry | Report This Song?
Song Tools

Comment

Songbook

Kudos

Show Chords

Print

Brad Paisley River Bank

HARD SOLO for those who don't do any tapping (like myself).  I think this is pretty accurate.  The ending gets hard to hear so the very last part 
should be good enough to get you by.  Good luck!

Intro
E-----------------------------------------------------------------------------------------------------------------------------------------
B-----------------------------------------------------------------------------------------------------------------------------------------
G------0-------0-----------------0------0---2---3b4-3b4-3b4-3b4-------0------0--------------0-----0---------------------------------------
D-----0--0-----0-------0---0----0-------5-5-5-5-5---5---5---5---------0--------0------------0-------0---------------2 more times----------
A----2-------------------------2---3----------------------------------------------5-5/7-5--------------5-5/7-5----------------------------
E---3--------3----3--5---6----3-------------------------------------3----pm3--------------3----pm3----------------------------------------
-



Solo #1
E----------15--------------------------------------------0-------------------------------------------------------------------------------
B-------15----15pb17-----------8-6-------------------------------6-------------------5---------------------------------------------------
G---12---------------14----7bh9----rb7--10p7p0h6h7p0h7-----3~~~----5b7---3p0-----5b7-----------------------------------------------------
D----------------------------------------------------------------------------3p0-------5-3-----------------------------------------------
A------------------------------------------------------------------------------------------5-4-3---5~~-----------------------------------
E------------------------------------------------------------------------------------------------5---------------------------------------



Solo #2

E---------------------------------------------------------------------------------------------------------------------------------------
B----------------------------------3----------------------3-----------5b6-5b6-5b6-5b6--3-----5b6--3-------------------------------------
G------------0-------5---------5--------5--3b4p0----------3--------3--5b6-5b6-5b6-5b6--3-----5b6--3-------------------------------------
D------------0---3/5-5-5--5bh7---7----7--r-------3--0h3h5----------3---------------------5-3--------------------------------------------
A------------------------------------------------------------3--5-----------------------------------------------------------------------
E----tp-17\1/3--3-----------------------------------------------------------------------------------------------------------------------

E---------------------------------------------------------------------------------------------------------------------------------------
B------------5b6-3h5p3p0h3~p0h3h6tap8p6p3p0h3h6p3p0-------------------------------------------------------------------------------------
G--3h5p3p0-3-----------------------------------------h5p3p0----3-5-3------------------tap17p15p12---------------------------------------
D--------------------------------------------------------------3-----5/h15p12tap17p12-------------h15p12-----tap17p15p12----------------
A---------------------------------------------------------------------------------------------------------h15-------------h15p13--------
E----------------------------------------------------------------------------------------------------------------------------------h12--

E---------------------------------------------------------------------------------------------------------------------------------------
B--------------------------------12h13h15-15b17-----------------------------------------------------------------------------------------
G-----------------------12h14h15--------------------------------------------------------------------------------------------------------
D--------------12h14h15-----------------------------------------------------------------------------------------------------------------
A-----12h14h15--------------------------------------------------------------------------------------------------------------------------
E---------------------------------------------------------------------------------------------------------------------------------------


 Comments (click here to add a non-facebook comment)
Home | FAQs | Privacy | Terms | Advertise | Contact
Top 100 Tab Sites