Give Kudos?
Are you sure you want to give kudos to logansams?

Add To Songbook?
Are you sure you want to add this song to your songbook?


2,862 bands | 36,210 songs
Search: Register FREE! | Login
Browse Songs:
Browse Bands:
Tool Panel
Discuss This Song

1 2 3 4 5



Brad Paisley - The Nervous Breakdown (correct Solo) (Solo)
Album: Who Needs Pictures-Part II (2008)
Submitter: logansams (2) on 11/23/04 7 comments
Month Views: 15 | Total Views: 8,289
Sound Byte: Listen
Moderator: Ray Terry | Report This Song?
Song Tools

Comment

Songbook

Kudos

Show Chords

Print

This should be pretty accurate.  I wonít swear that all the
notes are correct, but I will that 95%+ are right.  Some of
it gets a little lost in the mix or is too fast to know
exactly what is going on.  Just my take on it.

logansams at hotmail.com

SUBMITTED FOR countrytabs.net ONLY!  DO NOT REPRODUCE!

Solo:


----------------------------------------------------------
------3--3------------------------------------------------
--2^--------^2r--0--3--2p0-----2p0-----0------------------
----------------------------3-------3-----3--2p0-----2p0--
--------------------------------------------------3-------
----------------------------------------------------------


----------------------------------------------------------
----------------------------------------------------------
----------------------------------------0-----------------
-----0--------------------------0--2p0----------4-----5---
--3-----3--2p0-----2p0-----2/3-------------4/5-----6-----7
----------------3-------3---------------------------------


-----------------------------1p0-----0--------------------
----------------------------------3-----4\3--1-----3p1----
------------------------7-----------------------2---------
--6-----7-----9p7--7h9------------------------------------
-----8-----9----------------------------------------------
----------------------------------------------------------


----------------------------------------------------------
----1-----------------------------------------------------
-2-----3--2p0-----0---------------------------------------
---------------2-----1/2--3--0-----2p0-----0--------------
--------------------------------3------/3-----3--2p0--3p2-
----------------------------------------------------------


----------------------------------------------------------
---------------------------0-------------------3-----5p3--
------------------------------5p2-----2--3--4-----5-------
-----------0--2p0--2--4/5----------5----------------------
--0--2--3-------------------------------------------------
----------------------------------------------------------


-----3-----------
--------6/8--8---
--5--------------
-----------------
-----------------
-----------------





----------------------------------------------------------
------------0-----3p0-----------0-------------------------
-------2/4-----0------4p0--2/4-----0--7------/5--5p0--7p0-
----------------------------------------------------------
----------------------------------------------------------
--12\-----------------------------------------------------




----------------------------------------------------------
----------------------------------------------------------
-5p0--/5--5p0--7-----/4--4p0--7p0--4p0--/4--4p0--7p0--4p0-
----------------------------------------------------------
----------------------------------------------------------
----------------------------------------------------------



----------------------------------------------------------
-------------------------------------3-----3--------------
-5p0-----0--4p0-----0--2-------0--2^---^2-----^2r--0------
------5----------5----------------------------------------
----------------------------------------------------------
----------------------------------------------------------



----------------------------------------------------------
----------------------------------------------------------
-2p0----2p0----2p0----3p2p0----2p0----3p2p0----2p0---3p2p0
-----3------3------3--------3------3--------3------3------
----------------------------------------------------------
----------------------------------------------------------

Guitar God continues to play this type of pattern and then
does some random slides up and down the fret board.  When I
play this, I usually improvise some kind of ending lick.
If you can play this song to this point, Iím sure you can
do the same.  Comments welcomed.
 Comments (click here to add a non-facebook comment)
I have included a sound byte for those who are interested. I have left out the random slides at the end of the solo. I played it fast and then at close to half speed. Hope this helps.
-logansams | 11/27/2004
wow...agian, nice soundbyte lol...Your first tab of of it (not the solo) is right, i got it up to speed, sounds just right with the cd....

Awesome soundbyte, agn...
-mooman2679 | 11/27/2004
Thanks, again. You're too kind... it was a bit sloppy.
-logansams | 11/27/2004
Good stuff man, I think listening to the soundbyte this is probably more accurate than my tab for this song.
Rated 10, and I wouldn't worry about a bit of sloppiness in the soundbyte.. who apart from Brad can play that fast cleanly? lol
-axehappy | 11/29/2004
Yes, but the point is to play AS FAST AS Brad... CLEANLY :-) Maybe someday.
-logansams | 11/29/2004
AWESOME, SIMPLY AWESOME, I HAVE BEEN LOOKING EVERYWHERE FOR THIS TAB, I FIGURED A LOT OUT ON MY OWN BUT WAS MISSING A FEW PARTS AND NOW I KNOW WHAT I WAS MISSING. GREAT JOB BY THE WAY
-GuitarPickinGuy | 8/15/2005
Thanks man!
-logansams | 8/15/2005
Home | FAQs | Privacy | Terms | Advertise | Contact
Top 100 Tab Sites