Give Kudos?
Are you sure you want to give kudos to axehappy?

Add To Songbook?
Are you sure you want to add this song to your songbook?


2,668 bands | 34,775 songs
Search: Register FREE! | Login
Browse Songs:
Browse Bands:
Tool Panel
Discuss This Song

1 2 3 4 5





Brad Paisley - The Nervous Breakdown (part 3) (Tab)
Album: Who Needs Pictures-Part II (2008)
Submitter: axehappy (83) on 2/27/02 2 comments
Month Views: 24 | Total Views: 5,772
Moderator: Ray Terry | Report This Song?
Song Tools

Comment

Songbook

Kudos

Show Chords

Print

Brad Paisley - The Nervous Breakdown (Part 3)

By axehappy - axehappy at countrytabs.com

This part starts after piano, fiddle & steel solos, about [2:54] into
the song and continues until the end of the song.

The 'behind nut bend' at the end of the song is something you may not 
be familiar with...
All you do is push the string down behind the nut to raise its pitch.


ENJOY!

***********************************************************************

p   =   pulloff                             /   =   slide up

b   =   bend                                h   =   hammer-on

~   =   vibrato                             bbn =   bend behind nut

r   =   release bend  

***********************************************************************



Electric guitar

E--3p0-0------------------------------3p0-0--------------------------
B-----6-3p0-0----------------------------6-3p0-0---------------------
G----------5-3p0-0---------5-3b---5-3---------5-3p0-0---------7-6-5--
D---------------5-3p0-0----------------------------5-3p0-0-----------
A--------------------0--3/7-5--3/7-5--------------------0--5/9-8-7---
E--------------------------------------------------------------------


E--3p0-0--------------------------------------------------------
B-----6-3p0-0---------------------------------------------------
G----------5-3p0-0---------5-3b---5-3b-5p3-0-0------------------
D---------------5-3p0-0-------------------5-5-3p0-0h3-----------
A--------------------0--3/7-5--3/7-5-----------------5-4-3-1h2--
E---------------------------------------------------------3---3-


E---------------|
B---------------|
G------------0--|
D-------0h2p0---|
A--0h1/2--------|
E---------------|

                                               
E--3------------------------3---3--------------------------------3---|
B--0------------------------0----3-------------------------------0---|
G--0------------------------0-----0-0bbn-0r-0bbn-0r--------------0---|
D--0------------------------0------------------------------------0---|
A--2-----0-2-2b~~3-2-0------2------------------------------------2---|
E--3---3---------------3-1--3------------------------------------3---|


 Comments (click here to add a non-facebook comment)

-logansams | 11/23/2004
Really Great tab by the way but the only correction on this is that the Behind the nut bend is not actually true you can mimic the lick by bending behind the nut but brad doesn't. he has a g bender installed in his guitars (same as a b bender but only installed on the g string instead)
-goodyboy64 | 12/13/2005
Home | FAQs | Privacy | Terms | Advertise | Contact
Top 100 Tab Sites