Give Kudos?
Are you sure you want to give kudos to MattClark?

Add To Songbook?
Are you sure you want to add this song to your songbook?


2,862 bands | 36,210 songs
Search: Register FREE! | Login
Browse Songs:
Browse Bands:
Tool Panel
Discuss This Song

1 2 3 4 5



Brad Paisley - The Nirvous Break Down(hybrid Picking) (Intro)
Album: Who Needs Pictures-Part II (2008)
Submitter: MattClark (1) on 10/26/05
Month Views: 7 | Total Views: 3,629
Moderator: Ray Terry | Report This Song?
Song Tools

Comment

Songbook

Kudos

Show Chords

Print

acustic intro

p=pull off
h=hammer on
/=slide up
\=slide down
b=bend
R=pluck with ring finger
~=vibrato

    r r 
E(--0-0-r-r--------------------------------)
B(-8-6--0-0----r---------r---r----r---r----)
G(-----7-5-3p0-0-----r---5p0-3~---5p0-3~---)
D(------------5-3p0--0---------------------)
A(-----------------3b-5/7------5/7---------)
E(-----------------------------------------)

   r         r
E(-----------------------------------------)
B(-3---------3---------------r-------------)
G(-2h3p2p0---2h3p2p0---3p2p0-2p0-----------)
D(--------3---------3-------3---3p2p0------)
A(-----------------------------------3p2p0-)
E(----------------------------------------3)
 Comments (click here to add a non-facebook comment)
Home | FAQs | Privacy | Terms | Advertise | Contact
Top 100 Tab Sites