Give Kudos?
Are you sure you want to give kudos to ryan34?

Add To Songbook?
Are you sure you want to add this song to your songbook?


2,722 bands | 35,144 songs
Search: Register FREE! | Login
Browse Songs:
Browse Bands:
Tool Panel
Discuss This Song

1 2 3 4 5



Brandon Rhyder - Let The Good Times Roll (Tab)
Submitter: ryan34 (0) on 3/19/12
Month Views: 3 | Total Views: 3,335
Moderator: rab05 | Report This Song?
Song Tools

Comment

Songbook

Kudos

Show Chords

Print

Intro / Versus / Chorus
This is my first time so bare with me.
This is generally the way I play the song, just play the rift a couple times and you can begin to figure out the timing. 
Feel free to comment if you have any questions. This is a awesome and fun song to play once you can master it! have fun a keep 
strummin.

Intro / Versus / Chorus 
e----------3------------------------------
b--x-x-----3s7-77-7-----8s10-10---10------
g--x-x-----0---00-0-----0--x--x---0-------
d--x-x-----0---00-0-----0--x--x---0-------
a--x-x-----2s7-7777-----0---------0-------
E-----3-3-----------8-8--------10-10------
   ^ ^                                                                          
Pre Chorus 
"I need your body like I need your soul so come on baby let roll…."
Cadd9                  Em              Cadd9                       D
e--3-------------------3----------------3--------------------------2-----
b--3-------------------3----------------3--------------------------3-----
g------------------------------------------------------------------2-----
d--2-------------------2----------------2--------------------------------
a--3-------------------2----------------3--------------------------------
E------------------------------------------------------------------------
 This part is a quiet soft strum then picks up at the chord D , then just go back to playing the first rift for the rest of the song.
 Comments (click here to add a non-facebook comment)
Home | FAQs | Privacy | Terms | Advertise | Contact
Top 100 Tab Sites