Give Kudos?
Are you sure you want to give kudos to axehappy?

Add To Songbook?
Are you sure you want to add this song to your songbook?


2,635 bands | 34,497 songs
Search: Register FREE! | Login
Browse Songs:
Browse Bands:
Tool Panel
Discuss This Song

1 2 3 4 5





Brent Mason - Blowin' Smoke (part 2) (Tab)
Album: Hot Wired (1997)
Submitter: axehappy (152) on 2/21/03
Month Views: 19 | Total Views: 6,748
Moderator: mumbotom | Report This Song?
Song Tools

Comment

Songbook

Kudos

Show Chords

Print

Brent Mason  -  Blowin' Smoke  (part 2)  (tab)

By axehappy  -  axehappy at countrytabs.com


This part of the tab is from [0:58] up until the harmonica solo at [1:32]
Those little symbols over some of the bends are supposed to be quarter
or half step bends, but you can hardly see them, so I won't use them anymore.

Part 3 is comin' soon...


*************************************************************************************

bh   =   bend & hold                              r   =   release bend

b    =   bend                                     p   =   pulloff

~    =   vibrato                                  \   =   slide down

pbr  =   pre-bend & release                       /   =   slide up


*************************************************************************************


FIRST 'SOLO'

[0:58]
                                                                      
E--10----10------------------------------------------------10b~~\---------------
B--10bh----10r-8b---------------------------8-11\10-8-10-8b-------15--12--------
G----------------9p7-7b-9-7-9-9\-------7-8-9---------9------------14b-12b-------
D-------------------9----9--------7-8-9-----------------------------------14p12-
A-------------------------------------------------------------------------------
E-------------------------------------------------------------------------------

                                                                  
E----------------------------------12------------------------------------------
B------------------------------12--12-12------14-------------------------------
G------------------------------14bh---14r-p12-12pbr-9\7-7b---------------------
D----12--12--12--12--12-12--12-------------------------9--9-8-7-5-5b-----------
A--14--14--14--14--14-----14-------------------------------------7--7-6-5------
E------------------------------------------------------------------------7-6-5-


E-------------------------------------------------------5----3----------
B--------------------------------------------------3-1-2-2-------7-6-5--
G--------------5/6-5-6-5/6-6-5-6--------------0-2-4-------3-4-----------
D----------2/--4/5-4-5-4/5-5-4-5-1/2-4-5p4p2-4----------------5/7-6--5--
A-------2-4-------0---0---0-0-------------------------------------------
E--0-2/4----------------------------------------------------------------

                                                                
E---------------------------------------9--7---------------------------------------
B---------------------------------------8b-8----10--8-8----------------------------
G--2-----2-----2-----2-----2----------------9-7--9b-9-7pbr-5-7-5b------------------
D--5\4p2-5\4p2-5\4p2-5\4p2-5\4p2-2--------------------------7-7--7-6-5---------2-4-
A-------4-----4-----4-----4-----4-0--0--------------------------------7-6-5-3-4----
E----------------------------------3b----------------------------------------------

                                                   [1:32]
E------------------------------------12----------------|
B----2--3--5--6--7---9---10---11---12--12-12-15bh~~~---|
G--4b-5b-7b-8b-9b-11b-12b--13b--14b--------------------|
D------------------------------------------------------|
A------------------------------------------------------|
E------------------------------------------------------|

 Comments (click here to add a non-facebook comment)
Home | FAQs | Privacy | Terms | Advertise | Contact
Top 100 Tab Sites