Give Kudos?
Are you sure you want to give kudos to axehappy?

Add To Songbook?
Are you sure you want to add this song to your songbook?


2,630 bands | 34,422 songs
Search: Register FREE! | Login
Browse Songs:
Browse Bands:
Tool Panel
Discuss This Song

1 2 3 4 5





Brent Mason - Blowin' Smoke (part 3) (Tab)
Submitter: axehappy (129) on 2/21/03
Month Views: 21 | Total Views: 3,831
Moderator: mumbotom | Report This Song?
Song Tools

Comment

Songbook

Kudos

Show Chords

Print

Brent Mason  -  Blowin' Smoke  (part 3) (tab)

By axehappy  -  axehappy at countrytabs.com


This final part is from the end of the harmonica solo [2:07] until
the end of the song [3:07]


*********************************************************************************************

h   =   hammer-on                                             bh   =   bend & hold

r   =   release bend                                          ~    =   vibrato

b   =   bend                                                  p    =   pulloff

\   =   slide down                                            !    =   natural harmonic

/   =   slide up                                              x    =   dead note

*********************************************************************************************


SECOND 'SOLO'


 [2:07]
E------------------10---10-10-10-10----10--~~---15-16-17-17b-15b-----
B-------------8-10-10bh-10-10-10-10r-8-8h10~~-17----------------17---
G-----7-7h9--9----------------------------------------------------16-
D--7h9-9-------------------------------------------------------------
A--------------------------------------------------------------------
E--------------------------------------------------------------------


E-----12-----------------------12!---|
B--15b----------------------12!------|
G-------12-14-12~~11h12p11\9---------|
D------------------------------------|
A------------------------------------|
E------------------------------------|


MAIN THEME


                                                              (w/fill 1)
E------------------------------------------------------------------------------------------
B------------------------------------------------------------------------------------------
G----------------------------------2-2-2-2-2--------------------------------2p1------------
D---4p2-2---2-4p5-2---2-4p2-2------0-0-0-0-0--4p2-2---2-4p2-2-------2-0-0-2----2-0---------
A---5p2-2---2-5p5-2---2-5p2-2-0-4/5---4---4---5p2-2---2-5p2-2--0-1-2---2---2------2-0---0--
E--0---0-3-4-0---0-3-4-0---0-4---------------0---0-3-4-0---0-4-----------------------3-4---


                                                              (w/fill 2)
E---------------------------------------------------------------------------------------
B---------------------------------------------------------------------------------------
G----------------------------------2-2-2-2-2--------------------------------------------
D---4p2-2---2-4p2-2---2-4p2-2------0-0-0-0-0--4p2-2---2-4p2-2-------2-0-0-2-------------
A---5p2-2---2-5p2-2---2-5p2-2-0-4/5---4---4---5p2-2---2-5p2-2--0-1-2---2---2-1-0-2------
E--0---0-3-4-0---0-3-4-0---0-4---------------0---0-3-4-0---0-4--------------------3b-0--

                 

E-------------------------------------------------------------------------------9-7-
B-----------1/2--------------------------3--3----------1/2---------------------10-8-
G---2p0-0h2-1/2-6\4p2-4-2-2--2p0-0h2-----0--2--2p0-0h2-1/2-6\4p2-4-2-----9-10-11-9--
D---2p0-0h2--------------4---2p0-0h2-----0--0--2p0-0h2---------------9/11-----------
A--0---0---0----------------0---0-------------0---0---0-----------------------------
E-----------------------------------0-2-3--2----------------------------------------

   rake
E--x-------------------------------------------------------------
B---x--------------------------1/2--------------------------3--3-
G----7p5-5b------------2p0-0h2-1/2-6\4p2-4-2-2--2p0-0h2-----0--2-
D-------7--7p6p5-------2p0-0h2--------------4---2p0-0h2-----0--0-
A---------------7-5---0---0---0----------------0---0-------------
E------------------7b----------------------------------0-2-3--2--


E--------------------------5--6--7-8--9-10\--
B-----------1/2------------4--5--6-7--8-9-\--
G---2p0-0h2-1/2-6\4p2-4-2--2--3--4-5--6-7-\--
D---2p0-0h2----------------4--5--6-7--8-9-\--
A--0---0---0--------------2--3--4--5-6--7-\--
E--------------------------------------------


                                                              (w/fill 3)                        
E-----------------------------------------------------------------------------------------
B-----------------------------------------------------------------------------------------
G----------------------------------2-2-2-2-2--------------------------------2p1-----------
D---4p2-2---2-4p5-2---2-4p2-2------0-0-0-0-0--4p2-2---2-4p2-2-------2-0-0-2----2-0--------
A---5p2-2---2-5p5-2---2-5p2-2-0-4/5---4---4---5p2-2---2-5p2-2--0-1-2---2---2------2-0---0-
E--0---0-3-4-0---0-3-4-0---0-4---------------0---0-3-4-0---0-4-----------------------0-2--

                        [3:07]
E--------------------------|
B--------------------------|
G--------------------------|
D----0----------------2----|
A---2-0-4bh--4p3p2p0-------|
E--3----------------3b-0---|


** FILLS **
                                                

FILL 1

E-------0---0-5p4-0------------|
B--------3-3-0-----3-----------|
G--2-3/4--4---------4-2-0-1-2--|
D------------------------------|
A------------------------------|
E------------------------------|


FILL 2

E------0---0---------------|
B-------3-3----------------|
G-2-3/4--4---4-3p2-4-------|
D-------------------5b-2---|
A--------------------------|
E--------------------------|


FILL 3

E-------0---0-5p4-0--------------------------0----|
B--------3-3-0-----3-----------3-2b--2p1p0--------|
G--2-3/4--4---------4-2---2-0-4-2---------2-------|
D----------------------2-4-----------------5b-2---|
A-------------------------------------------------|
E-------------------------------------------------|

 Comments (click here to add a non-facebook comment)
Home | FAQs | Privacy | Terms | Advertise | Contact
Top 100 Tab Sites