Give Kudos?
Are you sure you want to give kudos to axehappy?

Add To Songbook?
Are you sure you want to add this song to your songbook?


2,630 bands | 34,422 songs
Search: Register FREE! | Login
Browse Songs:
Browse Bands:
Tool Panel
Discuss This Song

1 2 3 4 5





Brent Mason - Blue Water Girl (part 1) (Tab)
Album: Hot Wired (1997)
Submitter: axehappy (129) on 8/10/03 2 comments
Month Views: 36 | Total Views: 5,735
Moderator: mumbotom | Report This Song?
Song Tools

Comment

Songbook

Kudos

Show Chords

Print

Brent Mason  -  Blue Water Girl  PART 1 (tab)

By axehappy  -  axehappy at countrytabs.com


This is up to [2:11] in the song, where there's a kinda keyboard solo for a short while.

Second part to follow shortly.... 


*************************************************************************************************

/   =   slide up                                                   p   =   pulloff

\   =   slide down                                                 h   =   hammer-on

~   =   hold note                                                  b   =   bend

*************************************************************************************************


   [0:25]

E-----7-8----7-8-8/10------------------------------------------------------------
B---10-----10--------10/12-13p12-10-----------------------11/12-13-15\-10h11-10--
G--9-------------------------------12-14/16------------14-11/12-14-15\-10h12-10--
D------------------------------------------14--14-16-17--------------------------
A--------------------------------------------------------------------------------
E--------------------------------------------------------------------------------

                                                       [0:50]

E---------------------------------------------------------7-8-----7-8-8/10---------------
B--11p10------------13-12-10----------------------------10------10--8-----11/12-13p12-10-
G-------12-10-10/12---------12---10/11~~/14\11/14\11---9-------9----8--------------------
D-----------------------------10---------------------------------------------------------
A---------------------------------8/9-~~/12\9-/12\9--------------------------------------
E----------------------------------------------------------------------------------------


E-------------------------------------------------------------------------------------------
B---------------7-8-10-11/12-12/13-15\-10h11-10--11p10--------------13-12-10----------------
G--12/14-16\9--9-------11/12-13/14-15\-10h12-10-------12p10--10/12----------12--10/11/14\11-
D----------------------------------------------------------12-----------------10------------
A--10/12-14\7-------------------------------------------------------------------8-/9-/12\9--
E-------------------------------------------------------------------------------------------

   [1:15]

E------------------------------------------------------------------------10/12-------------
B-----8h10-------------------8-10-12-13-12-------------------------------------15-13-12-13-
G--7/9----7/9-------------7/9-------------12-14-12-11-12-11-7/9-7~~/9\7--------------------
D------------9\7p5-7p5-5---------------------------12----12-7/9-7~~/9\7--------------------
A---------------------7-----------10-12-10-------------------------------------------------
E------------------------------------------------------------------------------------------


E---------------------------------------------------------------------------------
B--15-10/12------------------10---------------------------------------------------
G----------12h14/15\14p12--12--9/11---------------------10-9-7--------------------
D----------------------------------14-12-14-------------------7/9-----------------
A------------------------------------------12/14--12--11---------10--12--10-12-10-
E-----------------------------------------------14--12-------------12--12-----12--

   [1:38]   

E--------------------------------------------------------------------------------
B-------------------------------------------------------------------12-13-13/15--
G-----------------------------------------------------------11-12-14-------------
D----------------------9-10-9--------------------------12-14---------------------
A-------10-12-10--10h12------12-10--10/12---------12-14--------------------------
E--10h12--------12----------------12------12h14h15-------------------------------


E--12--------------------------------------------------------------------------------------
B----12-13--12--------------------15-15-17--------15-15-17-----------15-15-17--------------
G---------14--12/14------14--14/16-----------14/16--------14/16-14/16--------14/16---------
D------------------14-17---17-------------17--------------------------------------16\14-12-
A------------------------------------------------------------------------------------------
E------------------------------------------------------------------------------------------


E-------------------------------------------------------------7-10-8---------------------
B-------------------------------------------------------7-8-10------10/12----------------
G---------11-12p11-----------------------------------7-9-----------------12--------------
D----12-14--------14-12---------------------------7-9----------------------14-12---------
A--14------------------14-12-------------7-------9------------------------------14-12-14-
E---------------------------14\12-10-7-10-10-7-10----------------------------------------

   [1:57]

E------------15-------15---------------------------10---------------------------------------
B-------15-17----17-----17----------------------------13-12-10------------------------------
G--14/16---------15h16--15h16-16\14-12-12-14-------------------12-9/11-12p11-----12h14-12---
D--------------17---------------------14----12h14---------------------------14-12--------14-
A-------------------------------------------------------------------------------------------
E-------------------------------------------------------------------------------------------

                                           [2:11]
  
E-------------------------------------------|
B-------12----------------------------------|
G--12-14--12b--14-11/12---------------------|
D------------14--------14--12/14------------|
A------------------------14------14\12p10---|
E-------------------------------------------|


 Comments (click here to add a non-facebook comment)
Pretty cool stuff, reminds me of that Weather Channel music.

Good job as always
-mooman2679 | 6/6/2005
Great transcr i ption! On the money. Thanks!!
-GaryJarvis | 12/8/2011
Home | FAQs | Privacy | Terms | Advertise | Contact
Top 100 Tab Sites