Give Kudos?
Are you sure you want to give kudos to axehappy?

Add To Songbook?
Are you sure you want to add this song to your songbook?


2,630 bands | 34,422 songs
Search: Register FREE! | Login
Browse Songs:
Browse Bands:
Tool Panel
Discuss This Song

1 2 3 4 5





Brent Mason - Blue Water Girl (part 2) (Tab)
Album: Hot Wired (1997)
Submitter: axehappy (129) on 8/10/03 1 comment
Month Views: 24 | Total Views: 3,491
Moderator: mumbotom | Report This Song?
Song Tools

Comment

Songbook

Kudos

Show Chords

Print

Brent Mason  -  Blue Water Girl  PART 2  (tab)

By axehappy  -  axehappy at countrytabs.com


This is from [2:36] to the end of the song.


****************************************************************************************************

/   =   slide up                                                  br   =   bend & release

p   =   pulloff                                                   ph   =   pinched harmonic

bh  =   bend & hold                                               r    =   release bend

\   =   slide down                                                b    =   bend

h   =   hammer-on

****************************************************************************************************

   
   [2:36]

E----------------------------------------------------------------------------------------------
B------------------15-17----------15-17--------------------------------------12-13-12-13-15/17-
G-------12-14-14/16----------14/16-----14br-p12-14p12--ph14bh--14r-p12--12-14------------------
D--12/14----------------14-17------------------------14---------------14-----------------------
A----------------------------------------------------------------------------------------------
E----------------------------------------------------------------------------------------------


E----15-14--------------------------15-17-17/19--17--15--12-----------------------------------
B--15------15----------------------------------18--17--15--12-15--12--------------------------
G------------16-------------------------------------------------14--12-14--12------------12\--
D--------------17-16-12--------------------------------------------------14--12-14--12h14-----
A----------------------14p12------------------------------------------------------14----------
E---------------------------15-14\------------------------------------------------------------

   [2:52]
  
E-------------------------------------------------------------------------------------------
B-----12--12-15-12-15/17--------------------------------------------------------------------
G--14b--14---------------13/14\13-----------------------------------------------------------
D--------------------------------14-12--10\9-----------12---------12------------------------
A-------------------------------------14----12-10-12/14--14-15--14--14-15-------------------
E-------------------------------------------------------------16---------15\12-8\7-8-10-8-7-


E------------------------7--8--10---15b-15-12---12------------------------------------------------
B-----------------------8-10-12--------------15b--15b-12-15--12-----------------------------------
G---------------7------------------------------------------14--12-14--12--------12/14\12--12/13---
D------------7-9-9-10-9---------------------------------------------14---14p12----------14-----12-
A------7-9-10-----------------------------------------------------------------14------------------
E--8-10-------------------------------------------------------------------------------------------

   [3:07]

E-----7-8----7-8-8/10------------------------------------------------------------------------------
B---10-----10--------10/12/13\12-9/10-------------7-8-8/10-11/12-13-15\-10h11-10--11p10------------
G--9---------------------------------12/14/16\9--9---------11/12-14-15\-10h12-10-------12-10-10/12-
D-----------------------------------------------------5/7------------------------------------------
A------------------------------------10/12/14\7----------------------------------------------------
E--------------------------------------------------------------------------------------------------


E-------------------------------------------------------------------------------------------
B--13-12-10---------------------------------------------------------------------------------
G----------12--10/11p9--9-11-7/9----9-12-12-10h11-11-9/11-9-9---9h11h12p11p9----------------
D------------10-------12----------12----------------9----------9------------9\7-------------
A------------------------------------------------------------------------------10p9p7-------
E------------------------------------------------------------------------------------10p8p7-


E--------------------------------------------9-12/14\12p10----------------------------------
B---------------------------------7-10p7-7-10-------------12-10--------10-----10-----10-----
G--------------7-----7-9------11-7------9----------------------12-10/11--10/11--10/11--11\9-
D------7-9--7-9-9-7-9-----9-12--9-----------------------------------------------------------
A--7-10---10------------10------------------------------------------------------------------
E-------------------------------------------------------------------------------------------


E-----------------------------|
B-----------------------------|
G-----9-----------------------|
D--7/9-9\7---5/7p5-----5------|
A-----------------7p5-5-5h7---|
E--------------------7--------|


 Comments (click here to add a non-facebook comment)
Thanks for another great tab!!
-GaryJarvis | 12/8/2011
Home | FAQs | Privacy | Terms | Advertise | Contact
Top 100 Tab Sites