Give Kudos?
Are you sure you want to give kudos to axehappy?

Add To Songbook?
Are you sure you want to add this song to your songbook?


2,630 bands | 34,422 songs
Search: Register FREE! | Login
Browse Songs:
Browse Bands:
Tool Panel
Discuss This Song

1 2 3 4 5





Brent Mason - Gator Bite (Part 2) (Tab)
Submitter: axehappy (129) on 8/6/03 1 comment
Month Views: 34 | Total Views: 4,780
Moderator: mumbotom | Report This Song?
Song Tools

Comment

Songbook

Kudos

Show Chords

Print

Brent Mason  -  Gator Bite PART 2 (tab)

By axehappy  -  axehappy at countrytabs.com


This is from the 'lead solo' section of the song, and then right up to the end.


***********************************************************************************************

br   =   bend & release                                        p   =   pulloff

b    =   bend                                                  ph  =   pinched harmonic

/    =   slide up                                              \   =   slide down

pbr  =   pre-bend & release                                    bh  =   bend & hold

r    =   release bend                                          h   =   hammer-on

x    =   dead note                                             ~   =   vibrato

***********************************************************************************************


  [1:09]

E---------------------8ph/10-8-10--------------------3-3--3-3--3-3-------------
B--10br-p8-8-8-8-10b-------------10b-10-8-6----------3-3--3-3--3-3-------------
G---------7------------------------------7-7\5p3-3-5b---5b---5b---5pbr-p3-5-3b-
D-----------------------------------------------5------------------------5-----
A------------------------------------------------------------------------------
E------------------------------------------------------------------------------


E-----------------------------------------6b-3--------3--------------3-3---3-3-
B------------------------3-------------------3-6p3---3--------------3--3-6b----
G----------------3p2p0----4p3p2p0------7----------5bh--5r-p3-3b-3h5b-----------
D--3p2p0--------------3/4--------3b-3-5---------------------5--5---------------
A-------3-1/2-3/4--------------------------------------------------------------
E------------------------------------------------------------------------------

                                                        rake
E-----9-9----10-10----12-12----13-13----15-15-------------15b-12----------15------
B--11b----13b------15b------16b------18b------19bh~~-----x----12-15-15-15---15-15-
G-------------------------------------------------------x--------14b---14b--14b---
D---------------------------------------------------------------------------------
A---------------------------------------------------------------------------------
E---------------------------------------------------12\---------------------------


E----------------------------------------------------------10----------10----------10-
B--15~~15~~15~~15~~~~--------14--------------------10-11-12--9-10-11-12--9-10-11-12---
G--14b~14b~14b~14bh~~14r-p12-14---12b-----------14b-----------------------------------
D----------------------------14-14---14-12-14/----------------------------------------
A-------------------------------------------------------------------------------------
E-------------------------------------------------------------------------------------

                                                              semi harmonics=============
E------------10----------10----------10-12-15b-12------------------------------------------
B--9-10-11-12--9-10-11-12--9-10-11-12------------15p12-------------------------------------
G-----------------------------------------------------14-12\/-14b-14-12--------------------
D----------------------------------------------------------------------14-12---------------
A---------------------------------------------------------------------------14-13-12-------
E-----------------------------------------------------------------------------------15b-12-


E--------------11--9-----------------------------------------------------------
B--------------12-10-10/12-10-9-7----6--5--7p5---------------------------------
G---------11-13------11/13-11-9-7h8--7--6--7p5-------3/4-0-----0--0-0-0---3/4--
D--9-11/13----------------------7----6--5-----7------4/5-0-2p0-3--2-0-0h2-4/5--
A------------------------------------8--7------8\7-0---------------------------
E-------------------------------------------------6--3---------3-3-3-----3-----


E-------------------------------------------------------0-----------------------
B-------------------0---3--5--0---------------------2/3-0--------------------3--
G--3/4-0-----0--0---1---2--3b-0-----0--0-0-0---3/4--3/4--3-2-0-----3p2p0-----2--
D--4/5-0-2p0-3--2-------0-----0-2p0-3--2-0-0h2-4/5----------------------2-3h4---
A----------------2/3-3/4--------------------------------------2/3-4-------------
E--3---------3-3-----------3--------3-3-3-----3-----3---------------------------


E--------------------------------------------------------------------------------
B---------------------------------------------0---3--5--5------------------------
G--3/4-0-----0--0-0-0---3/4--3/4-0-----0--0---1---2--3b-3b-0-----0--0-0-0---3/4--
D--4/5-0-2p0-3--2-0-0h2-4/5--4/5-0-2p0-3--2-------0--------0-2p0-3--2-0-0h2-4/5--
A------------------------------------------2/3-3/4-------------------------------
E--3---------3-3-3-----3-----3---------3-3-----------3--3--------3-3-3-----3-----


E------0-----0----------------------|
B--2/3-0-2/3-0----------------------|
G--3/4---3/4--3p2p0-----------------|
D------------------3-2p1p0------0---|
A-------------------------3-1h2-2---|
E--3----------------------------3---|


 Comments (click here to add a non-facebook comment)
Great tab man...I have one minor correction

where it is...

E-----------------------
B--3--------------------
G---4p3p2p0------7------
D----------3b-3-5-------
A-----------------------
E-----------------------

It should be

E-----------------------
B--3--------------------
G---4p3p2p0------3brbr--
D----------3b-3-5-------
A-----------------------
E-----------------------

That is the only correction I have, still giving ya a ten, no reason to take of for a minor mistake like that :)
-mooman2679 | 5/13/2005
Home | FAQs | Privacy | Terms | Advertise | Contact
Top 100 Tab Sites