Give Kudos?
Are you sure you want to give kudos to axehappy?

Add To Songbook?
Are you sure you want to add this song to your songbook?


2,635 bands | 34,497 songs
Search: Register FREE! | Login
Browse Songs:
Browse Bands:
Tool Panel
Discuss This Song

1 2 3 4 5





Brent Mason - Gator Bite (part 1) (Tab)
Submitter: axehappy (140) on 8/4/03
Month Views: 32 | Total Views: 8,035
Moderator: mumbotom | Report This Song?
Song Tools

Comment

Songbook

Kudos

Show Chords

Print

Brent Mason  -  Gator Bite  PART 1 (tab)

By axehappy  -  axehappy at countrytabs.com


Groovy little tune this one... :o)
Gotta use pick & fingers or thumbpick and fingers though...can't be played without.


********************************************************************************************

/   =   slide up                                            p   =   pulloff

h   =   hammer-on                                           b   =   bend

\   =   slide down

********************************************************************************************



FOR THIS WHOLE SECTION, WHERE THE LOW 'G' NOTE ON BOTTOM 'E' STRING IS PLAYED,
USE YOUR THUMB TO FRET THE NOTE...(AFTER THE FIRST 4 SLIDES UP TO G5)


  [0:07]


E---------------------------------------------------------------------------
B---------------------------------------------------------------------0---3-
G--------------------------3/4-0-----0--0-0-0---3/4--3/4-0-----0--0---1---2-
D--4/5---4/5---4/5---4/5---4/5-0-2p0-3--2-0-0h2-4/5--4/5-0-2p0-3--2-------0-
A--4/5---4/5---4/5---4/5-------------------------------------------2/3-3/4--
E--2/3---2/3---2/3---2/3---3---------3-3-3-----3----3----------3-3----------


E----------------------------0-----------------------------------------------
B--5----------------------3--0--------------------3--------------------------
G--3b-0----0--0-0-0---3/4-3b--3-2-0-----3p2p0-----2-3/4-0-----0--0-0-0---3/4-
D------2p0-3--2-0-0h2-4/5--------------------2-3h4--4/5-0-2p0-3--2-0-0h2-4/5-
A----------------------------------2/3/4-------------------------------------
E--3-------3-3-3-----3---3--------------------------3---------3-3-3-----3----


E--------------------------------------------------------0-----0--------------------|
B--------------------0---3-5--5----------------------2/3-0-2/3-0--------------------|
G---3/3-0-----0--0---1---2-3b-3b-0----0--0-0-0---3/4-3/4---3/4--3p2p0------------0--|
D---4/5-0-2p0-3--2-------0--------2p0-3--2-0-0h2-4/5-----------------3-2p1p0-----0--|
A-----------------2/3-3/4---------------------------------------------------3-1h2---|
E--3----------3-3----------3--3-------3-3-3-----3----3------------------------------|


JAM OVER 'E' CHORD FOR A FEW BARS, THEN:


  [0:58]

E--------------11--9---------------------------------------------|
B--------------12-10-10/12-10-9-7----6--5--7p5-------------------|
G---------11-13------11/13-11-9-7h8--7--6--7p5-------------------|
D--9-11/13----------------------7----6--5-----7------4/5---4/5---|
A------------------------------------8--7------8\7-0-4/5---4/5---|
E-------------------------------------------------6--2/3---2/3---|


First 'solo' part to come soon....when I can be bothered tabbing some more..lol



 Comments (click here to add a non-facebook comment)
Home | FAQs | Privacy | Terms | Advertise | Contact
Top 100 Tab Sites