Give Kudos?
Are you sure you want to give kudos to axehappy?

Add To Songbook?
Are you sure you want to add this song to your songbook?


2,635 bands | 34,497 songs
Search: Register FREE! | Login
Browse Songs:
Browse Bands:
Tool Panel
Discuss This Song

1 2 3 4 5





Brent Mason - Hot Wired (part 2) (Tab)
Album: Hot Wired (1997)
Submitter: axehappy (140) on 2/16/02
Month Views: 35 | Total Views: 6,537
Moderator: mumbotom | Report This Song?
Song Tools

Comment

Songbook

Kudos

Show Chords

Print

Brent Mason - Hot Wired (part 2)

By axehappy - axehappy at countrytabs.com

Play with capo on 1st fret, or tune guitar up to FBbEbAbCF.

All notes are relative to position of capo.

I've tabbed the song in sections so that its easier to follow.

This part is up to the steel solo (1:19 - 1:39)


GOOD LUCK GUYS!!!

***********************************************************************

b   =   bend                                p   =   pulloff

/   =   slide up                            h   =   hammer-on

bh  =   bend & hold                         r   =   release bend

~   =   vibrato                             br  =   bend & release

\   =   slide down                          pbr =   pre-bend & release

***********************************************************************


PIANO SOLO ENDS HERE



E------------------------------4-7p5----8-6-8p6p5----------------------
B-----------------------------5-----5------------8-7-6-5---------------
G--------5p4-----------4-7-4-5-------5------------------7-5-6----------
D-----4-7---7-6-5-4-6/7---------------7----------------------7-5-------
A--4/5---------5-5----------------------------------------------7-6-5--
E----------------------------------------------------------------------


E--------------------------------------------------------------------
B----------------------------2p0-3p0-4p0-5/6-3-2h3---0h1-------------
G---------2p0-3p0-4p0-------4-----------2-----5---5-2---2-0-1h2-0-2--
D--------------------2-0-2-5-----------------------------------------
A--0-2/3/4--------------4--------------------------------------------
E--------------------------------------------------------------------


E------------5-----------------------------5----------------
B--0h1----5--5-5-----3-1-----------5-4-3----5-8-5-----------
G-----2-0-7bh--7r-5-0---2--5b-----------5/6------8-7-4-5-6--
D----------------------------7-6-5--------------------------
A-----------------------------------------------------------
E-----------------------------------------------------------


E---------------------------------------------------------------1-3--
B------------------1p0-------------------------------------0-1/3-----
G--2p0-----------2----3-1h2--------------------------0----2----------
D-----2-1p0---2-4----------3p1-----------3-----0----3--2/3-----------
A----------3/4----------------3-2-1-----3-----2--4/5-----------------
E----------------------------------3/4-1---2/3-----------------------


E--------0--0-----0--0--0--0-0-------------------|
B-----8-10-10--8-10-10--8--8-8----7-5b-----------|
G--7/9----9---9----9---9--9---9\7-7-5b----5------|
D--------------------------------7-7--7----5-7---|
A--------------------------------------6h7-------|
E------------------------------------------------|



STEEL GUITAR SOLO STARTS HERE

 Comments (click here to add a non-facebook comment)
Home | FAQs | Privacy | Terms | Advertise | Contact
Top 100 Tab Sites