Give Kudos?
Are you sure you want to give kudos to axehappy?

Add To Songbook?
Are you sure you want to add this song to your songbook?


2,635 bands | 34,497 songs
Search: Register FREE! | Login
Browse Songs:
Browse Bands:
Tool Panel
Discuss This Song

1 2 3 4 5





Brent Mason - Hot Wired (part 3) (Tab)
Album: Hot Wired (1997)
Submitter: axehappy (140) on 2/16/02 1 comment
Month Views: 52 | Total Views: 5,826
Moderator: mumbotom | Report This Song?
Song Tools

Comment

Songbook

Kudos

Show Chords

Print

Brent Mason - Hot Wired (part 3)

By axehappy - axehappy at countrytabs.com

Play with capo on 1st fret, or tune guitar up to FBbEbAbCF.

All notes are relative to position of capo.

I've tabbed the song in sections so that its easier to follow.

When you see a passage with : at the start and end, repeat this passage
once, then carry on through the tab.

This is right through to the end of the song now! (1:58 - End)

The piano, steel and guitar take turns in the first part, so I'll put 
where they come in.

GOOD LUCK GUYS!!!

***********************************************************************

b   =   bend                                p   =   pulloff

/   =   slide up                            h   =   hammer-on

bh  =   bend & hold                         r   =   release bend

~   =   vibrato                             br  =   bend & release

\   =   slide down                          pbr =   pre-bend & release                  
x   =   dead note

***********************************************************************


STEEL SOLO ENDS HERE



E-------14--14-12--12--10-10--8--3/5-3-2------------------|
B-------15--15-13--13--12-12-10--5/7-5-3--4/5-3-1---------|
G-----------------------------------------4/5-4-2---------|
D--12/16--16-----14------0----------0-0-----------7\5-5---|
A--------------------------------------------0-0----------|
E---------------------------------------------------------|


**************
* PIANO SOLO *
**************


E---------------------------------------------------3---------|
B----------------------0-1p0-----------0-1p0-0-1-3/5-5p3------|
G---------------------2-----2p0-0-----2-----2-----------5-2---|
D------------0-2-0-2-4---------4-2h3h4------------------------|
A---------2-3---3---------------------------------------------|
E--1/2-3-4----------------------------------------------------|


**************
* STEEL SOLO *
**************


E-----------------------------------------------10-------7/-9--7--
B-----------------------------------------8-10bh--10r-8--8/10--8--
G----------------------------5-----7-7-8-9------------------------
D---------------------3-5-6-7-7-8-9-------------------------------
A--x-----------3-3-4-5--------------------------------------------
E--x-8\-1-3-4-5---------------------------------------------------


E------------------------------|
B--8-7-5b----------------------|
G--9-7-5b--6-4-2--2-0----0-----|
D---7----7-7-5-4--2-1p0--0-----|
A-----------0-0--0------3-3----|
E--------------------------3b--|


E---------------------------------------------------------------
B---------------------------------------------------------------
G---2p0-5p0-7p0-6p0-5---2p0-5p0-5-4----0----2p0-5p0-7p0-5p0-4---
D---2p0-5p0-7p0-5p0-4---2p0-5p0-3-3----0----2p0-5p0-7p0-6p0-5---
A--0---0---0---0---0---0---0--------5/7-3b-0---0---0---0---0----
E------------------------------3-3------------------------------


E-------------------|
B-----------3--3----|
G---2p0-5p0-0--2----|
D---2p0-5p0-0--0----|
A--0---0------------|
E----------3--------|


E:-5p3p0---------0-----------------------------------------------------
B:------4p3-2h3h4-1h2--------------------------------------------------
G:---------5---------2p0-2p0-0-----------0---------2p0-2p0-2-2---------
D:----------------------2---2-2p1-0---2h4-4p2p0----2p0-2p0-2-2---------
A:-------------------------------3-3/4---------3b-0---0---0---------0--
E:--------------------------------------------------------------0-3b---

1st ending            2nd ending

E---------------:     --------------|
B---------------:     --------------|
G--2p0-2p0-5b---:     --4/6-6\5-4---|
D--2p0-2p0-5b---:     --5/7-7\6-5---|
A-----0---0-----:     -----0---0----|
E---------------:     --------------|


E:------------------------:---------------------------------------
B:------------------------:---2p0-0-------------------------------
G:---------------0-0------:---2p0-0-----------------2p0-2p0-2-2---
D:---0---2p0--0-4-4-4p2-0-:------4-4p2-0---2--------2p0-2p0-2-2---
A:--3-3/5---3b------------:--4--------4-3h4-3p2p0--0---0---0------
E:-2----------------------:----------------------3b---------------


E-------------------------------------------
B-------------------------------------------
G---2---2---2---2---2----4---4---4---4---4--
D---1p0-1p0-1p0-1p0-1----3p0-3p0-3p0-3p0-3--
A-------------------------------------------
E--1---1---1---1---1--1/3---3---3---3---3---


E------------------------------------------------
B-----2-2-----2-0-----2-2-----2-0-----1-1--------
G-----0-0-----2-0-----0-0-----2-0-----0-0--------
D--2/4-4-4-2-4-4-4-2-4-4-4-2-4-4-4-2-4-4-4-2-0---
A------------------------------------------------
E------------------------------------------------


E----------------------------------------|
B----------------------------------------|
G---2---2---2---2---2----4---4---4---4---|
D---1p0-1p0-1p0-1p0-1----3p0-3p0-3p0-3---|
A----------------------------------------|
E--1---1---1---1---1--1/3---3---3---3----|


E--5p3p0---------0-------------------------------------|
B-------4p3-2h3h4-1h2----------------------------------|
G----------5---------2p0-2p0-0-----------0-------------|
D-----------------------2---2-2p1-0---2h4-4p2p0--------|
A--------------------------------3-3/4---------3b-0----|
E------------------------------------------------------|


E--------------------------------5------------------------------
B--0-----------------------------5-8-5-8--8-----7-5-------------
G--0-------------------5-7---5-7b------7b-7-7-5-7-5-------------
D--0----------5-7---5-7---5-7------------------7---7-5-5--------
A----------5-7---5-7----------------------------------7-7p6p5-0-
E-------5-8-----------------------------------------------------


E---------------12\-----|
B---------------12\-----|
G---------------12\-----|
D---------------11\-----|
A--3/5~~~~/12---12\-----|
E-----------------------|


Thats it! All finished....hope you enjoyed that one!

Axehappy


***********************************************************************

 Comments (click here to add a non-facebook comment)
Good one,, well done!!!
-aussief | 8/10/2010
Home | FAQs | Privacy | Terms | Advertise | Contact
Top 100 Tab Sites