Give Kudos?
Are you sure you want to give kudos to calve66?

Add To Songbook?
Are you sure you want to add this song to your songbook?


2,630 bands | 34,422 songs
Search: Register FREE! | Login
Browse Songs:
Browse Bands:
Tool Panel
Discuss This Song

1 2 3 4 5





Brent Mason - Sugarfoot Rag (Tab)
Album: Hot Wired (1997)
Submitter: calve66 (22) on 9/29/06
Month Views: 364 | Total Views: 22,242
Moderator: mumbotom | Report This Song?
Song Tools

Comment

Songbook

Kudos

Show Chords

Print

Brent Mason:Sugarfoot Rag

Tarnscribed by C Van Etten  9/29/06

Buckle up and hold on tight. This is fast as hell ! Good Luck ! Cal



E-5-5-5-10-8-5-5------5-5-7-5-------------5---0-------------------------
B-7-6-5-8--7-6-5--5-7---------7-5-7-8-7-8---8-4/5-5-7p5-----------------
G-6-6-6-8--7-5-6----------------------------------------6-4---------4---
D-5-5-5-7--6-4-5--------------------------------------------7-4-6-7---7-
A-----------------------------------------------------------------------
E-----------------------------------------------------------------------


E-----5-5-7-5-------------5---0-------------------------0---------------
B-5-7---------7-5-7-8-7-8---8-4/5-5-7p5---------------------------------
G---------------------------------------6-4---------4---5/6-5h6-5-4-----
D-------------------------------------------7-4-6-7---7-4/5-5-------7-4-
A-----------------------------------------------------------------------
E-----------------------------------------------------------------------

E-------------------------------------------0---------------------------
B---------------------5-7p5---------------------------------------------
G-------5p4-------4-6-------6-4---------4---5/6-5h6-5-4-----------5p4---
D---4-7-----7-4-7---------------7-4-6-7---7-4/5-5-------7-4---4-7-----7-
A-5---------------------------------------------------------5-----------
E-----------------------------------------------------------------------


E-------------------------------
B---------5-7p5-----------------  Without the chords, this section 
G-----4-6-------6-4---------4---  repeats again
D-4-7---------------7-4-6-7---7-
A-------------------------------
E-------------------------------

E-----8------7------8------9------8------7-7---------------------------
B-5/7---7-10---7-10---7-10---7-10---7-10-----10p8----------------------
G-------------------------------------------------10\9p7------9-8---7--
D--------------------------------------------------------9h11-----9---8
A----------------------------------------------------------------------
E----------------------------------------------------------------------


E-----------------------------------------------5-7-8-7-5--------------
B-------------------------------------------5-7------------------------
G-5-6-5-4-------------------------4-7-4-5-6----------------------------
D---------7-5-4-------------4-5-7--------------------------------4-----
A---------------7-6-5-4-5-7---------------------------------4--5---5h6-
E---------------------------------------------------------5--5---------



E----------------------------------------7-----------------------------
B---------7-6-5------------------------9---10-----7--------------------
G-----5-8-------8-7-5/6-----------7-10--------7h8---9-8-7--------------
D-4-7-------------------9-8-7-6-9-------------------------10\9-8p7-----
A----------------------------------------------------------------------
E----------------------------------------------------------------------


E-----------8/9--------------------------------------------------------
B--------10-----10-9-------------------------10-------10-------10------
G-6/8-11-------------11-10-9----------9-11-9----12/14----12/14-----12/14
D----------------------------12-10h11----------------------------------
A----------------------------------------------------------------------
E----------------------------------------------------------------------


E-------------------------------------------------------12--------------
B-10-------10-------10-------10-------10-------10-10-10-13b14-10-10----8
G----12/14----12/14----12/14----12/14----12/14----------------------11--
D-----------------------------------------------------------------------
A-----------------------------------------------------------------------
E-----------------------------------------------------------------------


E-------------4/5-------------------------------------------------------
B-8---7-7---5-4/5--------5--------------------------------------10\9----
G---9-----7-------8-7----5/6---------------------9-------11---X------11-
D---------------------7------7-5--------------11---11h12----X-----------
A--------------------------------7-6-5-3/4/12---------------------------
E-----------------------------------------------------------------------


E-----------------------------------------------------------------------
B-------------8\7-------------6p5---5-----7-5---------------------------
G-9---------------9-7-------------7---6-8-----6-----7----7-6------------
D---11-10-9-8---------9-8-7-6-------------------7-4--4-7-----7-4-------7
A----------------------------------------------------------------7\6-9--
E-----------------------------------------------------------------------


E--------------------------
B--------------------------
G-6------------------------
D-------6-9-7-10\9-7-----7-
A---5-7--------------9-7---
E--------------------------

Fiddle Solo

Dobro Solo...... Then !



E----------------------------8-10-8-9--------------
B--8--8--8--8-----------9h11----------10-7------10-
G-10-10-10-10-------7h8--------------------10-9----
D--9--9--9--9---6h7--------------------------------
A-10-10-10-10--------------------------------------
E--------------------------------------------------

Guitar Solo

E-8/9-------7-----5-------------------------------------------5---------
B-----10------8-----7---8-6\5---7/8-6-------------------------------8-7-
G--------11-----9-----7-------6-------8-5-----------4-7-4-5-6---7\6-----
D-----------------------------------------6-5-----5---------------------
A---------------------------------------------8-7-----------------------
E-----------------------------------------------------------------------


E-----------------------------------------------------------------------
B-5--4--3---1h2---------------------------------------------------------
G---------------2p0-------------------2p0-2p0-----------------2p0-2p0---
D---5--4--3---------2-1p0---0-----2-4---------2p1---0-----2-4---------2-
A-------------------------3---3h4-----------------3---3h4---------------
E-----------------------------------------------------------------------


E---------------------------8---7---------------------------------------
B---------------------------7---8-------------8\7-8\7-8\7-5-------------
G---------------2-5-5-4-----------5-8\7-5-----8\7-8\7-8\7-5h6-----------
D-1---0-----2-4---------------------------7-5-----------------7---------
A---3---3h4-------------------4---5-6-----------------------------------
E-----------------------2/5---------------------------------------------


Repeat melody 3/4 of the way through and then

E-5-4-------------3-2---------------------2-----------5-----------------
B-----7-5-------------5-4-3-2-----------3---4-3-2-0---5-----------------
G---------6-5-4-3-------------4-3-2-1-4-------------2-2-----------------
D-----------------------------------------------------2-----------------
A-----------------------------------------------------0-----------------
E-----------------------------------------------------------------------


 Comments (click here to add a non-facebook comment)
Home | FAQs | Privacy | Terms | Advertise | Contact
Top 100 Tab Sites