Give Kudos?
Are you sure you want to give kudos to axehappy?

Add To Songbook?
Are you sure you want to add this song to your songbook?


2,635 bands | 34,497 songs
Search: Register FREE! | Login
Browse Songs:
Browse Bands:
Tool Panel
Discuss This Song

1 2 3 4 5





Brent Mason - Swing With A Sting (part 3) (Lead)
Submitter: axehappy (152) on 9/22/02
Month Views: 16 | Total Views: 3,708
Moderator: mumbotom | Report This Song?
Song Tools

Comment

Songbook

Kudos

Show Chords

Print

Brent Mason  -  Swing With A Sting, PART 3 (lead)

By axehappy  -  axehappy at countrytabs.com


This is the final part of my tab, starting at [2:42], at the end of the steel solo,
and finishing at the end of the song.
This part is following the main motif of the song (the first part) again, so when 
you know that part, this one shouldn't be too difficult.


*******************************************************************************************

\   =   slide down                                          p   =   pulloff

h   =   hammer-on                                           /   =   slide up

*******************************************************************************************



E---------------------------------3-3---------------------------------3----
B------------2-3-2----------------5-4------------2-3-2-------------3--4-6--
G-----0-3-4-5-----6\5p3-3-5-3h4---4-4-----0-3-4-5-----6\5p3-3-5-3-4---4-6--
D--0-2-----------------5-5-----5--5-3--0-2-----------------5-5--------5-7--
A-----------------------------------------------------------------------4--
E--------------------------------------------------------------------------


E------------------------------3------------------------------------3-3--
B------------2-3-2-----------------------------2-3-2----------------5-4--
G-----0-3-4-5-----6\5p3-3-5-3-4---------0-3-4-5-----6\5p3-3-5-3-4---4-4--
D--0-2-----------------5-5-----------0-2-----------------5-5-----5--3-3--
A------------------------------------------------------------------------
E------------------------------------------------------------------------


E---------------------------------3-2/3---------------------------------0---------
B------------2-3-2----------------5-2/3------------2-3-2-------------3\2-3--------
G-----0-3-4-5-----6\5p3-3-5-3-4---4-2/3-----0-3-4-5-----6\5p3-3-5-3-4-----4-------
D--0-2-----------------5-5-----5--5-0----0-2-----------------5-5-----------5-4-3--
A---------------------------------------------------------------------------------
E---------------------------------------------------------------------------------


E-------------------------------------------------6h7---6/7---6/7---8/10-8-10p8\7-------
B------------------5-7-8-7-5---8\--7h8p7-------5-8---8-5---8-5---8-5-------------8------
G-------------5-6-8-----8-6-6/7---------9-8-7-6-----------------------------------9-8-7-
D--------5-7-8--------------------------------------------------------------------------
A---6-7-8-------------------------------------------------------------------------------
E--8------------------------------------------------------------------------------------


E------------------------------------------------------------------------------------
B--8---------------2-3-2-------------3-----5-5-6-------------------------------------
G---6-5-----0-3-4-5-----6\5p3-3-5-3-4-5-3-4-----7p5-----------------4-5-6-7--6-0-5-0-
D--------0-2-----------------5-5-------------------7-5h6---------5-7-----------------
A-------------------------------------------------------7-6-5-4-7--------------------
E------------------------------------------------------------------------------------

                  
                picked VERY fast..............................................
E--------3-3-3--------------------------------3-6-3------------------------------|
B--------3-4-5-----------------------------5-6-----6-3---------------------------|
G--3h4---3-4-4----------0---0-2-0-2-5-3-4-5-----------5-3---5-3-3----------------|
D-----5--2-3-5---0-2-0-2-2-3---3-------------------------5-3---5-5-3-------------|
A---------------3---3-----------------------------------------------5-4-3-1h2----|
E----------------------------------------------------------------------------3---|



 Comments (click here to add a non-facebook comment)
Home | FAQs | Privacy | Terms | Advertise | Contact
Top 100 Tab Sites