Give Kudos?
Are you sure you want to give kudos to Koichi Kondo?

Add To Songbook?
Are you sure you want to add this song to your songbook?


2,693 bands | 34,922 songs
Search: Register FREE! | Login
Browse Songs:
Browse Bands:
Tool Panel
Discuss This Song

1 2 3 4 5





Brett Eldredge - Raymond (Chord)
Submitter: Koichi Kondo (603) on 10/11/10 2 comments
Month Views: 174 | Total Views: 35,415
Moderator: coreySrocks | Report This Song?
Song Tools

Comment

Songbook

Kudos

Show Chords

Print

Raymond
Recorded by Brett Eldredge

(Capo on 4)

Intro.:  | (Am) | (G) |  x  repeat


E -----|-----------------|-----------------|-----------------|-----------------|
B -----|-0-1---3-----0-1-|---3-----1-0-----|---0-------------|-----------------|
G ---0-|-----------------|-------------2-0-|-2---2-0---------|-----------------|
D -0---|-----------------|-----------------|-----------------|-----------------|
A -----|-----------------|-----------------|-----------------|-----------------|
E -----|-----------------|-----------------|-----------------|-----------------|

E -----------------|-----------------|-----------------|-----------------|
B -0-1---3-----0-1-|---3-----1-0-----|---0---0---------|-----------------|
G -----------------|-------------2-0-|-2---2-----------|-----------------|
D -----------------|-----------------|-----------------|-----------------|
A -----------------|-----------------|-----------------|-----------------|
E -----------------|-----------------|-----------------|-----------------|


(Am) I work down at Ashberry Hills, (G) minimum wage, but it pays the bills
(Am)Cleanin' floors and leadin' hymns on (G)Sunday

(Am)Katherine Davis, room 303, (G)sweetest soul you ever could meet
I (Em)bring her morning (D)coffee everyday (C)

(Chorus)
She calls me (C)Raymond, she thinks I'm her (G)son
Tells me (C)get washed up for supper before your (D)daddy gets home
She goes (C)on about the weather, how she (Em)can't believe it's al-(D)ready 19-(C#dim)43
She calls me (C)Raymond, and that's all right by (G) me

She talks about (Am)clothes on the line in the summer air
(G)Christmas morning and Thanksgiving prayer
(Am)Stories of a family that I never (G)had
Some-(Em)times I find my-(D)self wishin' I'd been (C) there

(Chorus)
When she calls me (C)Raymond, she thinks I'm her (G)son
Tells me (C)get washed up for supper before your (D)daddy gets home
She goes (C)on about the weather, how she (Em)can't believe it's al-(D)ready 19-(C#dim)43
She calls me (C)Raymond, and that's all right by (G) me

There's a (Am)small white cross in Arlington, reads (Bm)Raymond Davis '71
Un-(F)til she can see his face again, I'm (C)gonna fill in the best I can

(Chorus)
She calls me (C)Raymond, she thinks I'm her (G)son
Tells me (C)get washed up for supper before your (D)daddy gets home
She goes (C)on about the weather, how she (Em)can't believe it's al-(D)ready 19-(C#dim)43
She calls me (C)Raymond, and (F)that's all right by (G) me

(Tag)
She calls me (Am)Raymond, (C) that's all right (Am) by me | (G) | (Am) | (G) -----
 
 Comments (click here to add a non-facebook comment)
any idea bout the lead guitar solos . . intro ???
-olvera06 | 3/13/2011
I just put the intro tab. Check it.
-Koichi Kondo | 3/14/2011
Home | FAQs | Privacy | Terms | Advertise | Contact
Top 100 Tab Sites