Give Kudos?
Are you sure you want to give kudos to Stallion?

Add To Songbook?
Are you sure you want to add this song to your songbook?


2,831 bands | 36,009 songs
Search: Register FREE! | Login
Browse Songs:
Browse Bands:
Tool Panel
Discuss This Song

1 2 3 4 5



Brooks & Dunn - Beer Thirty (intro + Solo) (Tab)
Album: Tight Rope (1999)
Submitter: Stallion (0) on 3/11/02
Month Views: 16 | Total Views: 6,846
Moderator: Ray Terry | Report This Song?
Song Tools

Comment

Songbook

Kudos

Show Chords

Print

Brooks & Dunn - Beer Thirty (intro + lead)

By Stallion ksteberg at tiscali.no

Howdy folks! I submit these part of the song. The chords are
already out there!


************************************************************************
p = pulloff	/ = slide up	h = hammer on

x = muted string	b = bend		bh = bend and hold

\ = slide down	! harmonic	r = release bend

************************************************************************


E-----3-----------------3--------------------3--------------
B-------5p3p0-3/5-5-------5p3p0p 3/5-----------5p3p0-3/5-5--
G-----------------------------------------------------------
D-----------------------------------------------------------
A-----------------------------------------------------------
E-(0)---------------(0)--------------(0)-(0)----------------

                    1/4 bend
E--------------------------------------------------------
B-3p0----------------------------------------------------
G-----3-2p0----------------------------------------------
D-----------2p0----------------------------------------2-
A---------------2p0------------2-2-4-4-5-5-4-4-2-2-------
E-------------------3b-0-0-3-4---------------------3h4---

  This is also the pattern the lead guitar plays  around on the chords E and A
E-----------------------------------|
B-----------------------------------|
G-----------------------------------|
D--------------------------------2--|
A--------2-2-4-4-5-5-4-4-2-2--------|
E--0-3-4---------------------3h4----|

Solo:
   *       * = 1/4 bend 
E--3b--0------0-----------------------------------------------
B--------0-3b---0-5p3p0-5p3p0-5p3p0-3--3----------------------
G-----------------------------------2b-2-0--------------------
D------------------------------------------2p0----------------
A----------------------------------------------2-1p0---0-1/2--
E----------------------------------------------------3--------

    *rake and slide the B up a bit (just to connect to the next tone)

E------------------------------15-15-15-15-15--12-------------------------|
B------10-9--8-----------------14-14-14-14-14-----15p12-------------------|
G---4--9b-8b-7bh-7rp6p5---5-----------------------------15-14p12----12----|
D---4-------------------7---7------------------------------------14----14-|
A-2-2/--------------------------------------------------------------------|
E-------------------------------------------------------------------------|

Outro:

E-----3-----------------3--------------------3-----------------
B-------5p3p0-3/5-5-------5p3p0p-3/5-----------5p3p0-3/5-5-2p0-
G--------------------------------------------------------------
D--------------------------------------------------------------
A--------------------------------------------------------------
E-(0)---------------(0)--------------(0)-(0)-------------------

              Just use the blues scale and improvise out  
E---------------------------------------|
B---------------------------------------|
G---------------------------------------|
D--5--4--3--2---------------------------|
A--5--4--3--2---------------------------|
E--3--2--1--0---------------------------|
 Comments (click here to add a non-facebook comment)
Home | FAQs | Privacy | Terms | Advertise | Contact
Top 100 Tab Sites