Give Kudos?
Are you sure you want to give kudos to geetar81?

Add To Songbook?
Are you sure you want to add this song to your songbook?


2,831 bands | 36,023 songs
Search: Register FREE! | Login
Browse Songs:
Browse Bands:
Tool Panel
Discuss This Song

1 2 3 4 5



Brooks & Dunn - Brand New Man (Solo)
Album: Brand New Man (1991)
Submitter: geetar81 (5) on 4/18/02
Month Views: 47 | Total Views: 9,898
Moderator: Ray Terry | Report This Song?
Song Tools

Comment

Songbook

Kudos

Show Chords

Print

Strum Solo (x times)
E-10-------------------- 8--10--8--10--10-------
B--8---------------------8---8--8---8---8-------
G---------------------------------------------------
D---------------------------------------------------
A---------------------------------------------------
E---------------------------------------------------

E----------------------------------------------------------
B-8-8---7---5-5--7-----8-----------------------------------
G-7-7---7---7-7--7-----7-----------------------------------
D------------------------------9b7^5------------5^7^5-----
A---------------------------------------7^5--5-------------
E----------------------------------------------------------

-Geetar81
 Comments (click here to add a non-facebook comment)
Home | FAQs | Privacy | Terms | Advertise | Contact
Top 100 Tab Sites