Give Kudos?
Are you sure you want to give kudos to calve66?

Add To Songbook?
Are you sure you want to add this song to your songbook?


2,831 bands | 36,009 songs
Search: Register FREE! | Login
Browse Songs:
Browse Bands:
Tool Panel
Discuss This Song

1 2 3 4 5



Brooks & Dunn - Building Bridges (Solo)
Album: Hillbilly Deluxe (2005)
Submitter: calve66 (6) on 7/10/06
Month Views: 12 | Total Views: 4,584
Sound Byte: Listen
Moderator: Ray Terry | Report This Song?
Song Tools

Comment

Songbook

Kudos

Show Chords

Print

Brooks and Dunn:Building Bridges(Solo)



E----------12-12----------12-12----------12--12/14\--------
B-12bh(14)-------12bh(14)-------12bh(14)-------------------
G----------------------------------------------------------
D----------------------------------------------------------
A----------------------------------------------------------
E----------------------------------------------------------


E----------------------------------------------------------
B-(14)r12-10-12-12b(14)-10b(12)-10p7-7---------------------
G----------------------------------------------------------
D----------------------------------------------------------
A----------------------------------------------------------
E----------------------------------------------------------

E-5---5--5---5---------------------2-----------------------
B-5h7-5--5h7-5-7-----------------2---2-5-------------------
G----------------6\4-2-4-2-4b(6)---------4b(6)r4-2/14-14-14
D----------------------------------------------------------
A----------------------------------------------------------
E----------------------------------------------------------


E-------17-17-17-------------------------------------------
B-13/14----------------------------------------------------
G----------------------------------------------------------
D----------------------------------------------------------
A----------------------------------------------------------
E----------------------------------------------------------

 Comments (click here to add a non-facebook comment)
Home | FAQs | Privacy | Terms | Advertise | Contact
Top 100 Tab Sites