Give Kudos?
Are you sure you want to give kudos to hulkster58?

Add To Songbook?
Are you sure you want to add this song to your songbook?


2,831 bands | 36,009 songs
Search: Register FREE! | Login
Browse Songs:
Browse Bands:
Tool Panel
Discuss This Song

1 2 3 4 5



Brooks & Dunn - Cowgirls Don't Cry (Fiddle intro for guitar) (Intro)
Album: Cowboy Town (2007)
Submitter: hulkster58 (0) on 12/14/08
Month Views: 22 | Total Views: 6,979
Moderator: Ray Terry | Report This Song?
Song Tools

Comment

Songbook

Kudos

Show Chords

Print

Standard Tuning

Intro: this is what the fiddle plays during the duration of this song.


E------------------------------------------------
B------------------------------------------------
G-----2-4-4s6-6-4-2-2---------2-4-4s6-6-4-2-2----
D-2-4----------------4----2-4----------------2---
A------------------------------------------------
E------------------------------------------------

E------------------------------------------------
B------------------------------------------------
G-----2-4-4s6-6-4-2-2---------2-4-4s6-6-4-2-2----
D-2-4----------------4----2-4----------------2---
A------------------------------------------------
E------------------------------------------------


then after the second chorus you play the same thing again

....Cowgirls Don't Cry

E------------------------------------------------
B------------------------------------------------
G-----2-4-4s6-6-4-2-2---------2-4-4s6-6-4-2-2----
D-2-4----------------4----2-4----------------2---
A------------------------------------------------
E------------------------------------------------

E------------------------------------------------
B------------------------------------------------
G-----2-4-4s6-6-4-2-2---------2-4-4s6-6-4-2-2----
D-2-4----------------4----2-4----------------2---
A------------------------------------------------
E------------------------------------------------

and the outro is the same except for the final notes

.....Cowgirl Don't Cry

E-----------------------------------------------
B----------------------------------------------- 
G-----2-4-4s6-6-4-2-2---------2-4-4s6-6-4-2-2---
D-2-4----------------4----2-4----------------2--
A-----------------------------------------------
E-----------------------------------------------

E-----------------------------------------------
B-----------------------------------------------
G-----2-4-4s6-6-4-2-2---------------------------
D-2-4----------------4----2-4-2-----------------
A------------------------------4-2-0-------------
E-----------------------------------------------


When you play the parts of the song where the 2's are back to back on the G string, pluck the 
string quick; the 2-2 would be duhduh. When you listen to the song you can hear it, but you 
really dont need that extra 2 in there, it sounds just as good without it...

E---------		E----------
B---------		B----------
G-4-2-2---	or	G-4-2------
D------4--		D----4-----
A---------		A----------
E---------		E----------



I hope that y'all like this one, this is really the first one i've placed on here. it's really 
close to being the exact notes as the fiddle is playing, the tone may be a little off. there are 
other ways on the neck to play it also. if you mess around you can find them. thank you. please 
feel free to comment on this tab if you'd like. if you find a good way to play it post it up 
please. thank you!
 Comments (click here to add a non-facebook comment)
Home | FAQs | Privacy | Terms | Advertise | Contact
Top 100 Tab Sites