Give Kudos?
Are you sure you want to give kudos to WildCard76?

Add To Songbook?
Are you sure you want to add this song to your songbook?


2,626 bands | 34,395 songs
Search: Register FREE! | Login
Browse Songs:
Browse Bands:
Tool Panel
Discuss This Song

1 2 3 4 5





Brooks & Dunn - He's Got You (Intro)
Album: The Greatest Hits Collection (1997)
Submitter: WildCard76 (187) on 11/25/02
Month Views: 17 | Total Views: 3,654
Moderator: Ray Terry | Report This Song?
Song Tools

Comment

Songbook

Kudos

Show Chords

Print

E----2--------0--2-------------
B----3-----3-------------------
G----2-----------------2-------
D------------------------------
A------------------------------
E------------------------------

E-----2-----0--2---------------
B-----3----------------0-------
G-----4----------------0-------
D-----4------------------------
A------------------------------
E------------------------------

E------------0--2--------3-----
B--------3---------------3-----
G------------------------2-----
D------------------------------
A------------------------------
E------------------------------

E-----2--0---------------------
B------------3--2--------------
G------------------------------
D------------------------------
A------------------------------
E------------------------------
 Comments (click here to add a non-facebook comment)
Home | FAQs | Privacy | Terms | Advertise | Contact
Top 100 Tab Sites