Give Kudos?
Are you sure you want to give kudos to WildCard76?

Add To Songbook?
Are you sure you want to add this song to your songbook?


2,620 bands | 34,364 songs
Search: Register FREE! | Login
Browse Songs:
Browse Bands:
Tool Panel
Discuss This Song

1 2 3 4 5





Brooks & Dunn - I Can't Get Over You (Intro)
Album: If You See Her (1998)
Submitter: WildCard76 (232) on 8/18/03
Month Views: 28 | Total Views: 2,708
Moderator: Ray Terry | Report This Song?
Song Tools

Comment

Songbook

Kudos

Show Chords

Print

I CAN'T GET OVER YOU
Brooks and Dunn

Intro

   (C)          (G)                (F)                      (G)
  
E--------------------------------------1-1--1--0----------0------------
B--------------------0---1---3---------1-1--------3--1------3--3-------
G-----------------------------------------------------------------0----
D---------0--2----------------------3----------------------------------
A--3---3--3------------------------------------------------------------
E----------------3-----------------------------------------------------


   (C)          (G)                (F)                    (G)
  
E------------------------0----1--------1--1--1--0----------0-----------
B--------------------3--------3--------1--1---------3--1---0---3--3----
G--------------------0--------0----------------------------0-----------
D---------2--3----------------------3----------------------------------
A----3----3------------------------------------------------------------
E----------------3-----------------------------------------------------
 Comments (click here to add a non-facebook comment)
Home | FAQs | Privacy | Terms | Advertise | Contact
Top 100 Tab Sites