Give Kudos?
Are you sure you want to give kudos to tsmitty2005?

Add To Songbook?
Are you sure you want to add this song to your songbook?


2,960 bands | 36,664 songs
Search: Register FREE! | Login
Browse Songs:
Browse Bands:
Tool Panel
Discuss This Song

1 2 3 4 5



Brooks & Dunn - My Heart Is Lost To You (Intro)
Album: Steers & Stripes (2001)
Submitter: tsmitty2005 (0) on 6/5/05
Month Views: 51 | Total Views: 2,688
Moderator: Ray Terry | Report This Song?
Song Tools

Comment

Songbook

Kudos

Show Chords

Print

Okay, here is the intro guitar part to the song.
This can be played either with nylon or steel stings,
whichever one you prefer (or have!).  The only trick
is to tune your guitar down 1/2 step.  This means that
your A is actually and Ab.  Another way for those of you
who care is that you'll tune your strings to the 430 Hz
tuning instead of regular 440 Hz that we usually use.

*************Note***********************
No tricks on this tab, just know that:

/= slide up
****************************************

timsmith2005 at hotmail.com

e------------------------------------------|
B------------------------------------------|
G------------------------------------------|
D------------------------------------------|
A--2-5-7-7/9-7-5-4-7-5-2---7/9-7-5-5-2-5/7-|
E------------------------------------------|


e--------------------------------------------------|
B--------------------------------------------------|
G--------------------------------------------------|
D--------------------------------------------0-2---|
A--2-5-7-7/9-7-5-4-7-5-2---2-1---5-4-2---0-4-----4-|
E------------------------------2-------------------|


e------------------------------------|
B------------------2-3(hold)---------|
G--------------2-4-------------------|
D--------0-2-4-----------------------|
A--0-2-4-----------------------------|
E------------------------------------|

Good luck and please comment!
 Comments (click here to add a non-facebook comment)
Home | FAQs | Privacy | Terms | Advertise | Contact
Top 100 Tab Sites