Give Kudos?
Are you sure you want to give kudos to axehappy?

Add To Songbook?
Are you sure you want to add this song to your songbook?


2,668 bands | 34,775 songs
Search: Register FREE! | Login
Browse Songs:
Browse Bands:
Tool Panel
Discuss This Song

1 2 3 4 5





Brooks & Dunn - My Heart Is Lost To You (Solo)
Album: Steers & Stripes (2001)
Submitter: axehappy (82) on 5/19/02
Month Views: 11 | Total Views: 5,593
Moderator: Ray Terry | Report This Song?
Song Tools

Comment

Songbook

Kudos

Show Chords

Print

Brooks & Dunn - My Heart Is Lost To You (solo)

By axehappy - axehappy at countrytabs.com


'tremelo pick' means pick rapidly the same note.


***********************************************************************

tp   =   tremelo pick                         \   =   slide down

h    =   hammer-on                            p   =   pulloff

b    =   bend                                 br  =   bend & release

~    =   vibrato                              x   =   dead note

ph   =   pinched harmonic

***********************************************************************


  w/distortion


  Db                             Ab

E-16tp\-----13-14-13h14p13---------------------------------------------
B---------14---------------16-14-13-14-14b-14br-p13-14-13h14p13--------
G-------13-----------------------------------------------------15-15~\-
D----------------------------------------------------------------------
A----------------------------------------------------------------------
E----------------------------------------------------------------------

   Bbm                            F7  

                                   rake    
E---------13---------------------------13-14-13h14p13----------
B----14-13---11br-p9-11-9-------------x--------------16-14-13--
G------------------------10-10~~-----x-------------------------
D--15-------------------------------x--------------------------
A----------------------------------x---------------------------
E---------------------------------x----------------------------


E----------------------------------|
B--14p13-14-13h14p13---------------|
G-------------------15-14----------|
D------------------------15ph~~~---|
A----------------------------------|
E----------------------------------|


 Comments (click here to add a non-facebook comment)
Home | FAQs | Privacy | Terms | Advertise | Contact
Top 100 Tab Sites