Give Kudos?
Are you sure you want to give kudos to Deleted Member?

Add To Songbook?
Are you sure you want to add this song to your songbook?


2,836 bands | 36,082 songs
Search: Register FREE! | Login
Browse Songs:
Browse Bands:
Tool Panel
Discuss This Song

1 2 3 4 5



Brooks & Dunn - Neon Moon2 (Bass)
Album: Brand New Man (1991)
Submitter: Deleted Member (0) on 6/2/02
Month Views: 5 | Total Views: 4,210
Moderator: Ray Terry | Report This Song?
Song Tools

Comment

Songbook

Kudos

Show Chords

Print

it goes somethin' like that...
and well i'm from mexico so excuse me  
if  the  text is wrong
    
 verse:    A>
G---|-----------------------|
D---|-----------------------|
A---|----4--7-----4-4--7----|
E---|-5--------5------------|
     
           D>
G---|-----------------------|
D---|----4--7-----4-4--7----|
A---|-5--------5------------|
E---|-----------------------|
           E>     
G---|-----------------------|
D---|----6--9-----6-6--9----|
A---|-7--------7------------|
E---|-----------------------|
 chorus:    D>      E>
G---|-------------|-----------|
D---|------4--7---|------6--9-|
A---|-5--5--------|-7--7------|
E---|-------------|-----------|
  
INTRO (A X 2)   
          A
When the sun goes down On my side of town

That lonesome feeling Comes to my door
      D                   A
The whole world turns.. blue

There's a rundown bar Cross the railroad tracks
 
I've got a table for two Way in the back
      D                         
Where I sit alone And think of 
G---|-----------------------| *
D---|-----------------------|Losin'  you.
A---|----4--7----4-4--5-----|I spend most..
E---|-5--------5------------|
               E
............ every night Beneath the light of this
G---|-----------------------| *
D---|-----------------------|neon moon.
A---|----4--7----------4----|If you lose...
E---|-5--------5--5-7-------|


(chorus)   D                E
......... lose your one and only
                D
There's always room here for the 
G---|---4h6p4---------------| *
D---|---------6-------------|lonely
A---|-7---------------------|To watch your
E---|-----------------------|
     D                         E
.. broken dreams Dance in and out of the beams
      A
Of a neon moon

            
I think of two young lovers Running wild and free
                     
I close my eyes And sometimes see
 D                           A
You in the shadows Of this smoke-filled room

No telling how many tears I've sat here and cried

Or how many lies That I've lied
         D                         
Telling my poor heart She'll come 
G---|-----------------------|
D---|-----------------------|back someday
A---|----4--7----4-4--5-----|Oh,but I'll...
E---|-5--------5------------|
      E
.....be allright as long as the is light 
G---|-----------------------| *
D---|-----------------------|neon moon.
A---|----4--7----------4----|If you lose...
E---|-5--------5--5-7-------|


(chorus)   D                E
......... lose your one and only
                D
There's always room here for the 
G---|---4h6p4---------------| *
D---|---------6-------------|lonely
A---|-7---------------------|To watch your
E---|-----------------------|
     D                         E
.. broken dreams Dance in and out of the beams
      A
Of a neon moon      


(solo:play as verse)
 
       A
The jukebox plays on Drink by drink
The words of every sad song Seem to say what I think
      D                             
This hurt inside of me Ain't never.. 
G---|-----------------------|
D---|-----------------------|gonna end
A---|----4--7----4-4--5-----|Oh,but I'll...
E---|-5--------5------------|
      E
.....be allright as long as the is light 
G---|-----------------------| *
D---|-----------------------|neon moon.
A---|----4--7----------4----|If you lose...
E---|-5--------5--5-7-------|


(chorus)   D                E
......... lose your one and only
                D
There's always room here for the 
G---|---4h6p4---------------| *
D---|---------6-------------|lonely
A---|-7---------------------|To watch your
E---|-----------------------|
     D                         E
.. broken dreams Dance in and out of the beams
      A
Of a neon moon       
                E
To watch your broken dreams         A
Dance in and out of the beams Of a neon moon

                E
To watch your broken dreams
              (E ~)                    
Dance in and out of the beeeeeeeeeeeeeeeeeeams 
      A
Of a neon moon

 Comments (click here to add a non-facebook comment)
Home | FAQs | Privacy | Terms | Advertise | Contact
Top 100 Tab Sites