Give Kudos?
Are you sure you want to give kudos to ChiefKomosakawa?

Add To Songbook?
Are you sure you want to add this song to your songbook?


2,839 bands | 36,103 songs
Search: Register FREE! | Login
Browse Songs:
Browse Bands:
Tool Panel
Discuss This Song

1 2 3 4 5



Brooks & Dunn - Play Somethin' Country (correct) (Solo)
Album: Hillbilly Deluxe (2005)
Submitter: ChiefKomosakawa (1) on 7/18/05 5 comments
Month Views: 4 | Total Views: 6,369
Moderator: Ray Terry | Report This Song?
Song Tools

Comment

Songbook

Kudos

Show Chords

Print

Sweethomealabam already posted a tab of this but it just 
didn't sound right to me so I made my own tab of it. Tell 
me how it sounds. 

Symbols:
~ vibrato
b bend
r release bend
\ slide down
h hammer
p pull-off



E-----------------------------------------------------1----------------
B-------------------------------------------------------3-2-0----------
G-----3~~0--3~~0--3~~0----------0------3~~0--3~~0-------------3b-0-----
D---------5-----5-----3-0-3-0-3---3-0------5-----5-3-0-----------------
A-15\------------------------------------------------------------------
E----------------------------------------------------------------------


E----------------------------------------------------------------------
B-16b-16-15-14-13-------------------------------15-18p15-18b-18p15-18b-
G-----------------15-12----------------------17b-----------------------
D-----------------------15-12\10p8---10-8~-----------------------------
A---------------------------------10-----------------------------------
E----------------------------------------------------------------------


E-----------------18br15-----------------------------------------------
B-18p15-18b-18p15--------18br15----------------------------------------
G-------------------------------17br15-17--15~-------------------------
D----------------------------------------17----------15------15-17p15--
A-----------------------------------------------15h17---15h17----------
E----------------------------------------------------------------------


E----------------------------------------------------------------------
B-----------------------------18-----18---------18---------18----------
G-15-15b---------15-17-17br15---17b~---17br15-----17br15-----17br15----
D--------17-15h17----------------------------17---------17---------17--
A----------------------------------------------------------------------
E----------------------------------------------------------------------


E-------------
B-18-15-18b~--
G-------------
D-------------
A-------------
E-------------
 Comments (click here to add a non-facebook comment)
sounds great man!
-StangMang | 7/21/2005
Nice tab man. I like the way the other tab does the first part with the pull-offs but other than that this sounds 100% to me. -Keep it country brother-
-J-MR | 7/25/2005
nice tab man.......(all i have to say)
-dude909 | 9/3/2005
COOL BEANS....I aint run it down yet but yer tab "looks" like its pretty close.
-ragzradke | 9/16/2005
awesome tab / ya i agree sweethomealabam solo tab just didnt sound right, but yours sounds just like it.
-justinandeli1 | 11/19/2005
Home | FAQs | Privacy | Terms | Advertise | Contact
Top 100 Tab Sites