Give Kudos?
Are you sure you want to give kudos to ChiefKomosakawa?

Add To Songbook?
Are you sure you want to add this song to your songbook?


2,920 bands | 36,467 songs
Search: Register FREE! | Login
Browse Songs:
Browse Bands:
Tool Panel
Discuss This Song

1 2 3 4 5



Brooks & Dunn - That's What It's All About (Solo)
Album: The Greatest Hits Collection II (2004)
Submitter: ChiefKomosakawa (1) on 3/3/05
Month Views: 43 | Total Views: 2,839
Moderator: Ray Terry | Report This Song?
Song Tools

Comment

Songbook

Kudos

Show Chords

Print

E----------------------------------------------------------------------
B------17-17-----17-17-----17-17------17-17----------------------------
G--16b-------16b-------16b-------16bh-------16r-14----12h14-14-14------
D--------------------------------------------------16------------------
A----------------------------------------------------------------------
E----------------------------------------------------------------------


E----------------------------------------------------------------------
B------------------17----------17-----17-----17-----17------17---------
G-16--------14-16bh---16r-14-----16b----16b----16b----16bh----16r14----
D----14/16-------------------------------------------------------------
A----------------------------------------------------------------------
E----------------------------------------------------------------------


E-17---17---17---17---17---17---17---17---17---------------------------
B-20b--20b--20b--20b--20b--20b--20b--20b--20b--------------------------
G----------------------------------------------------------------------
D----------------------------------------------------------------------
A------------------------------------------------15b-12----------------
E----------------------------------------------------------------------
 Comments (click here to add a non-facebook comment)
Home | FAQs | Privacy | Terms | Advertise | Contact
Top 100 Tab Sites