Give Kudos?
Are you sure you want to give kudos to geetar81?

Add To Songbook?
Are you sure you want to add this song to your songbook?


2,836 bands | 36,082 songs
Search: Register FREE! | Login
Browse Songs:
Browse Bands:
Tool Panel
Discuss This Song

1 2 3 4 5



Brooks & Dunn - The Last Thing I Do (Lead)
Album: Steers & Stripes (2001)
Submitter: geetar81 (4) on 4/28/02
Month Views: 10 | Total Views: 4,870
Moderator: Ray Terry | Report This Song?
Song Tools

Comment

Songbook

Kudos

Show Chords

Print

Intro 
This is played through the Chorus too, but play the specified
chords where posted.

  C  G                           C    G
E-8--7-----------------------------------------------------|
B-8--8-----------------------------------------------------|
G----------10b---- 7--x---7-------5---------10-----7-x-7---|
D----------10b---- 7--x---7-------5----5----10-----7-x-7---|
A-----------8b-----5--x---5-------3----5-----8-----5-x-5---|
E--------------------------------------3-------------------|

1st Solo

E-------------------------------
B-----13------13----------------
G-12b-----12b-----12b---10------
D-12b-----12b-----12b------12---
A-------------------------------
E-------------------------------

E-15b-15^13-15-13--------13-------------13----13-15-15b-13-----
B------------------15-13----15----15-15----15--------------15--
G--------------------------------------------------------------
D--------------------------------------------------------------
A--------------------------------------------------------------
E--------------------------------------------------------------

E--------13--------13--------13-------------|
B-12b-12----12b-12----12b-12------12b--10---|
G-12b-12----12b-12----12b-12------12b--10---|
D-------------------------------------------|
A-------------------------------------------|
E-------------------------------------------|

Riff (3:25 - "...hands on you"

E--------------|
B-13(5x)15b---|
G-12(5x)-14b---|
D--------------|
A--------------|
E--------------|

End Solo 3:33

E------------------------------13--------|
B----13----13^15---15-15-15----15---15---|
G-14----14---------14-14-14---------14---|
D----------------------------------------|
A----------------------------------------|
E----------------------------------------|

Song Fades Out...

-Geetar


 Comments (click here to add a non-facebook comment)
Home | FAQs | Privacy | Terms | Advertise | Contact
Top 100 Tab Sites