Give Kudos?
Are you sure you want to give kudos to rob5150?

Add To Songbook?
Are you sure you want to add this song to your songbook?


2,960 bands | 36,675 songs
Search: Register FREE! | Login
Browse Songs:
Browse Bands:
Tool Panel
Discuss This Song

1 2 3 4 5



Brooks & Dunn - We'll Burn That Bridge (Tab)
Album: #1's...And Then Some (2009)
Submitter: rob5150 (0) on 6/15/12
Month Views: 127 | Total Views: 4,393
Moderator: Ray Terry | Report This Song?
Song Tools

Comment

Songbook

Kudos

Show Chords

Print

this is one of my tabs
hope you enjoy
brooks and dunn we'll burn that bridge

solo
E|--------7-7--------7-7-----------------------------------------|
B|--------8-8--------8-8---------8-8br-5---5---2br---------------|
G|----7-9-----9-7-9------9-7-9-----------7-----2br-0-------------|
D|--9------------------------------------------------2-0-2-------|
A|---------------------------------------------------------------|
E|---------------------------------------------------------------|

E|----------------------4--2-------------------------------------|
B|----------------------5--3-4--2--------------------------------|
G|------------------4-6------4--2--------------------------------|
D|-----------2--4/6----------------4br--2------------------------|
A|-------2-4-----------------------------------------------------|
E|-0--2/4--------------------------------------------------------|

intro
E|---------------------------------------------------------------|
B|---------------------------------------------------------------|
G|---------------------------------------------------------------|
D|---2-----------------------------------------------------------|
A|-----5-4-5-4--2-4----------------------------------------------|
E|-0----------------3bv------------------------------------------|
rob5150
 Comments (click here to add a non-facebook comment)
Home | FAQs | Privacy | Terms | Advertise | Contact
Top 100 Tab Sites